S W M

(/) Slide Up  (\) Slide Down  (h) Hammer On  (p) Pull Off  (b) Bend (r) Release (v) Vibrato
E|-------------------------------------------------------------------------------------
B|-------------------------------------------------------------------------------------
G|-------------------------------------------------------------------------------------
D|------------0--------------------------0---------------------------0-----------------
A|-------0h2-----2--0---------------0h2-----2--0--------2-------0h2-----2--0-----------
E|--0h3----------------3--0----0h3----------------3--0-----0h3----------------3--0-----



E|--------------------------------------------------------------------------------------------------
B|--------------------------------------------------------------------------------------------------
G|--------------------------------------------------------------0-----------------------------------
D|------------0-----------------------------0--------------2/5-----5--2--------------0--------------
A|-------0h2-----2--0--------2---------0h2-----2--0-----------------------------0h2-----2--0--------
E|--0h3----------------3--0-------0h3----------------3--0------------------0h3----------------3--0--



E|------------------------------------------------------------------------------------------
B|------------------------------------------------------------------------------------------
G|---------------------------------------0------------0-----0-------------------------------
D|--2r0--------------0--------------2/5-----5\2--0h2-----2-----2--0-------0--2--0-----------
A|--------------0h2-----2--0-----------------------------------------0h2-----------2--0-----
E|---------0h3----------------3--0-------------------------------------------------------3--



E|--3---------------------3---------------------3-----------------3--------
B|--0---------------------0---------------------0-----------------0--------
G|--0--------2r0----------0---------------------0-----------------0--------
D|--0-------------2r0-----0--------2r0----------0--------0--------0--------
A|--2---------------------2-------------2r0-----2-----------0-----2--------
E|--3--3--0------------3--3--3--0------------3--3--3--0--------3--3--3--0--



E|---------------------------------------------------------------------------------
B|---------------------------------------------------------------------------------
G|---------------------------------------------------------------------------------
D|----------0-----0------------------0-----0-------------------2-----0-----0h2-----
A|-----0h2-----2-----2--0h2-----0h2-----2-----2--0h2--------2-----2-----2----------
E|--3------------------------3------------------------3--0-------------------------



E|---------------------------------
B|---------------------------------
G|---------------------------------
D|--------2-----0-----2p0----------
A|-----2-----2-----2-------2p0-----
E|--0---------------------------3--



E|--3---------------------3---------------------3-----------------3--------
B|--0---------------------0---------------------0--------0--------0--------
G|--0--------2p0----------0---------------------0-----------0-----0--------
D|--0-------------2p0-----0--------2p0----------0-----------------0--------
A|--2---------------------2-------------2p0-----2-----------------2--------
E|--3--3--0------------3--3--3--0------------3--3--3--0--------3--3--3--0--



E|------------------------------------------------------
B|------------------------------------------0-----3--0--
G|------------------------------------0--------0--------
D|----------0-----------2----------2-----2--------------
A|-----0h2-----2-----2-----2/3--3-----------------------
E|--3-------------0-------------------------------------



E|------------------------------------------0-----
B|------------------------------------0--------3--
G|------------------------------0--------0--------
D|----------------2----------2-----2--------------
A|-----0h2-----2-----2/3--3-----------------------
E|--3-------0-------------------------------------
http://www.guitartabcreator.com
Guitar Tab Creator is intended to store guitar tab created through the tool. It currently does not support in-line text editing. Any text you place in here will be lost. If you need to comment on your tab, please use the "Tab Notes" section located below.