Path V. 2

(/) Slide Up  (\) Slide Down  (h) Hammer On  (p) Pull Off  (b) Bend (r) Release (v) Vibrato


E|--------------------------------------------------------------------
B|--------------------------------------------------------------------
G|-----------------------------------------------------------------0--
D|---------------------------2----------0---------------2-------2-----
A|-----2-------0-----0----3-----3----------2---------2-------3--------
E|--3-----3-------0------------------3------------0-------------------



E|-------------------------------------
B|-------------------------------------
G|--2-----2-------------2--------0--0--
D|-----0-----2--0----------0--2--------
A|-------------------------------------
E|-----------------3-------------------



E|-------------------------------------
B|-------------------------------------
G|-------------------------------------
D|--0--------------0----0--------------
A|-----0--0--3--2----------0--0--------
E|-------------------------------0--3--



E|----------------------2--------------
B|-------------------------3-----------
G|--2-----2--------0----------2-----0--
D|-----0-----2--0----------------2-----
A|-------------------------------------
E|-------------------------------------



E|--------------------------------------------------------------
B|--------------------------------------------------------------
G|--------------------------------------------------------------
D|-----------------------------2--0--------------------0--2-----
A|--------------------------3-----------------------------------
E|--3--3----0--0----3--3-----------------3--3--0--0----------3--



E|----------------------------------------
B|--3--------1-----0----3-----------------
G|-----2--2-----0----------2--2-----------
D|-------------------------------2--------
A|----------------------------------2-----
E|-------------------------------------3--



E|-----------------------------------
B|-----------------------------------
G|--2--------0-----0--2--------0--0--
D|-----0--2-----0--------0--2--------
A|-----------------------------------
E|-----------------------------------



E|------------------------------------------------------------------------------------------
B|---------------------------------------------------------------------------3--------------
G|------------------------------------------------------------------------------2-----------
D|-----------------------------2--0--------------------0--2--0----2----------------2--------
A|--------------------------3----------------------------------------3----------------3-----
E|--3--3----0--0----3--3---------------3--3----0--0---------------------3----------------3--
http://www.guitartabcreator.com
Guitar Tab Creator is intended to store guitar tab created through the tool. It currently does not support in-line text editing. Any text you place in here will be lost. If you need to comment on your tab, please use the "Tab Notes" section located below.