Open E

(/) Slide Up  (\) Slide Down  (h) Hammer On  (p) Pull Off  (b) Bend (r) Release (v) Vibrato

E|--4-----------4-----------------------------|--4-----------4--------------------0--0--0--0-----
B|--2-----2-----2-----2-----2-----0-----0-----|--2-----2-----2-----2-----2-----2-----2--2--2-----
G|-----3-----3-----3-----3-----0-----0-----0--|-----3-----3-----3-----3-----3--------3--3--3-----
D|--0-----------0-----------0-----------------|--0-----------0-----------0-----------0--0--0-----
A|--------------------------------------------|--------------------------------------------------
E|--------------------------------------------|--------------------------------------------------



E|--4--0--------|--4--0--------|--------------
B|--2--0--2--0--|--2--0--2--0--|--2--0--2--0--
G|--3--0--3--0--|--3--0--3--0--|--3--0--3--0--
D|--------0--0--|--------0--0--|--0--0--0--0--
A|--------------|--------------|--------------
E|--------------|--------------|--------------



E|-----0-----0-----0--------------|--------------------------------|-----0-----0-----0--------0-----
B|--------2-----2-----2--0--0--0--|-----2-----2-----2--------------|--------2-----2-----2--0-----0--
G|--------------------------------|--------3-----3-----3--0--0--0--|--------------------------------
D|--0--------------------0--------|-----------------------0--------|--0--------------------0--------
A|--------------------------0-----|--2-----------------------0-----|--------------------------0-----
E|-----------------------------0--|-----------------------------0--|-----------------------------0--



E|--------------------------------
B|-----2-----2-----2-----2--------
G|--------3-----3-----3-----0--0--
D|-----------------------0--------
A|--2-----------------------0-----
E|-----------------------------0--



E|--4-----------4--------------------------------|--4-----------4-----------------4--0--
B|--2-----2-----2-----2-----2--------------0-----|--2-----2-----2-----2-----2-----2--0--
G|-----3-----3-----3-----3-----3--0-----0-----0--|-----3-----3-----3-----3-----0--3--0--
D|--0-----------0-----------0--------0-----------|--0-----------0-----------0-----------
A|-----------------------------------------------|--------------------------------------
E|-----------------------------------------------|--------------------------------------



E|-----0h2--------------------------------------
B|----------0--2--0--2--0--2-----0-----0--------
G|----------------------------0-----0-----0-----
D|--0----------------------------------------0--
A|----------------------------------------------
E|----------------------------------------------
http://www.guitartabcreator.com
Guitar Tab Creator is intended to store guitar tab created through the tool. It currently does not support in-line text editing. Any text you place in here will be lost. If you need to comment on your tab, please use the "Tab Notes" section located below.