Sunday Morning Tabs

(/) Slide Up  (\) Slide Down  (h) Hammer On  (p) Pull Off  (b) Bend (r) Release (v) Vibrato


E|-----------------------
B|--5--3--5--6--8--5-----
G|--------------------5--
D|-----------------------
A|-----------------------
E|-----------------------



E|------------------------------------------------
B|--5--6--5------------------------7--------------
G|-----------7--5----------5--7h9-----9--7--7--7--
D|-----------------7--5h7-------------------------
A|------------------------------------------------
E|------------------------------------------------



E|------------------------------------------------------------
B|-----3--4--5------------------------------------------------
G|--5-----------5--4--2--4--5-----4--5-----4--5-----------5b7b
D|-----------------------------5--------4--------3--3--5------
A|------------------------------------------------------------
E|------------------------------------------------------------



E|----------------------
B|----------------------
G|----------------------
D|----------------------
A|--------3p5-----------
E|--3--5-------5--3-----
http://www.guitartabcreator.com
Guitar Tab Creator is intended to store guitar tab created through the tool. It currently does not support in-line text editing. Any text you place in here will be lost. If you need to comment on your tab, please use the "Tab Notes" section located below.