Natural Disaster

(/) Slide Up  (\) Slide Down  (h) Hammer On  (p) Pull Off  (b) Bend (r) Release (v) Vibrato


E|---------------------------------------------------------------------------
B|---------------------------------------------------------------------------
G|---------------------------------------------------------------------------
D|-------------------5-------------------------------------------------------
A|-----1-------------------7-----5-----7p5-----------------------------------
E|-----0-----3/7-------------------------------7-----6-----5-----3-----5-----



E|-------------------------------------------------------------------
B|-------------------------------------------------------------------
G|-------------------------------------------------------------------
D|-------------------5-----------------------------------------------
A|-----1-------------------7-----5-----7/10-----9h10p9-----7\5/7-----
E|-----0-----3/7-----------------------------------------------------



E|---------------------------------------------------------------------------
B|---------------------------------------------------------------------------
G|---------------------------------------------------------------------------
D|-------------------5-------------------------------------------------------
A|-----1-------------------7-----5-----7p5-----------------------------------
E|-----0-----3/7-------------------------------7-----6-----5-----3-----5-----



E|---------------------------------------------------------------------------
B|---------------------------------------------------------------------------
G|---------------------------------------------------------------------------
D|-------------------5-------------------------------------------------------
A|-----1-------------------7-----5-----7-----7-----7-----7-----7/9-----9-----
E|-----0-----3/7-----------------------------5-----5-----5-----5-7-----7-----
http://www.guitartabcreator.com
Guitar Tab Creator is intended to store guitar tab created through the tool. It currently does not support in-line text editing. Any text you place in here will be lost. If you need to comment on your tab, please use the "Tab Notes" section located below.