Take Good Care of My Baby

(/) Slide Up  (\) Slide Down  (h) Hammer On  (p) Pull Off  (b) Bend (r) Release (v) Vibrato
E|-----------|-----------------------|--------------------------|-----------------|--
B|-----------|-----1-----------1-----|--1-----------1-----------|-----1-----------|--
G|-----------|-----0-----0-----0-----|--0-----0-----0-----0-----|-----0-----0-----|--
D|-----------|-----2--------2--------|-----------2-----------2--|-----2--------2--|--
A|--0--2--4--|--------0--------------|-----------------0--------|--------0--------|--
E|-----------|--0-----------------0--|-----0--------------------|--0--------------|--



E|--3-----------|--------------------------------|-----------------------------------|--
B|--0-----------|-----1--1--0-----0--------0-----|--1-----------0--1-----0-----------|--
G|--------------|-----0--0--0--------2-----------|--------------0--2-----0-----------|--
D|--------------|-----2-----2-----------2--------|-----2-----3--------3-----3-----3--|--
A|--0--0--2--4--|--------0-----------------------|-----------------------------0-----|--
E|--------------|--0-----------0--------------0--|--------2-----2--------2-----------|--



E|--------------------------------|-----------0-----------------------3-----------5-----|--
B|-----1--------1--0--0--------0--|-----1-----1-----3--------0--------------------------|--
G|-----------0-----0-----2--------|-----------------2-----------0-----------------------|--
D|--------2--------2--------2-----|--------2-----3-----3-----------3--------3--------3--|--
A|--------------------------------|-----------0--------------------------------0--------|--
E|--0-----------0-----------------|--0--------------2-----2--------------2--------------|--



E|-----5--3-----
B|--3--------6--
G|--------------
D|--------3-----
A|-----0-----0--
E|-----------0--
http://www.guitartabcreator.com
Guitar Tab Creator is intended to store guitar tab created through the tool. It currently does not support in-line text editing. Any text you place in here will be lost. If you need to comment on your tab, please use the "Tab Notes" section located below.