Greensleeves

(/) Slide Up  (\) Slide Down  (h) Hammer On  (p) Pull Off  (b) Bend (r) Release (v) Vibrato

E|-----------0--2p0-------------------------------------------
B|-----1--3----------3--0--------0--1-------------0-----------
G|--2----------------------0--2--------2--2--1h2-----1--------
D|----------------------------------------3-------2-----2-----
A|-----0--2--3-------------2--------0-------------------------
E|-------------------3----------------------------------0-----

Stave 1:

E|-----------0--2p0-------------------------------------------
B|--0--1--3----------3--0--------0--1--0----------------------
G|-------------------------0--2-----------2----1-----1--2--2--
D|------------------------------------------------4-----------
A|-----0--2--3-------------2--------0-------------------0--0--
E|-------------------3-------------------------0--------------

Stave 2:

E|--
B|--
G|--
D|--
A|--
E|--

http://www.guitartabcreator.com
Guitar Tab Creator is intended to store guitar tab created through the tool. It currently does not support in-line text editing. Any text you place in here will be lost. If you need to comment on your tab, please use the "Tab Notes" section located below.