Hotel California Solo

(/) Slide Up  (\) Slide Down  (h) Hammer On  (p) Pull Off  (b) Bend (r) Release (v) Vibrato

E|--14p10------14p10------14p10--14p10------14p10------14p10--|--12p9------12p9------12p9--|-----
B|---------12---------12----------------12---------12---------|--------11--------11--------|-----
G|------------------------------------------------------------|----------------------------|-----
D|------------------------------------------------------------|----------------------------|-----
A|------------------------------------------------------------|----------------------------|-----
E|------------------------------------------------------------|----------------------------|-----



E|--18--|--12p9------12p9------12p9--12p9------12p9------12p9--|--10p7-----10p7-----10p7--16--|--
B|------|--------10--------10--------------10--------10--------|--------9--------9------------|--
G|------|------------------------------------------------------|------------------------------|--
D|------|------------------------------------------------------|------------------------------|--
A|------|------------------------------------------------------|------------------------------|--
E|------|------------------------------------------------------|------------------------------|--



E|--10p7-----10p7-----10p7--10p7-----10p7-----10p7--|--10----------10----------10------14--|--
B|--------8--------8--------------8--------8--------|------10----------10----------10------|--
G|--------------------------------------------------|----------11----------11--------------|--
D|--------------------------------------------------|--------------------------------------|--
A|--------------------------------------------------|--------------------------------------|--
E|--------------------------------------------------|--------------------------------------|--
http://www.guitartabcreator.com
Guitar Tab Creator is intended to store guitar tab created through the tool. It currently does not support in-line text editing. Any text you place in here will be lost. If you need to comment on your tab, please use the "Tab Notes" section located below.