Schmoidle

(/) Slide Up  (\) Slide Down  (h) Hammer On  (p) Pull Off  (b) Bend (r) Release (v) Vibrato


E|--------------------------------------------
B|--------------------------------------------
G|--------------------------------------------
D|--6--6--6--6--6-----------------------------
A|-----------------6--5--4--4--4--4--4--5--6--
E|--------------------------------------------



E|--------------
B|--------------
G|--------------
D|--------------
A|--------------
E|--5--5--5--5--



E|-----------------------
B|-----------------------
G|-----------------------
D|-----------6-----5--4--
A|--4--4--4-----4--------
E|-----------------------



E|--------------------------------------------------------------------------------------------
B|--------------------------------------------------------------------------------------------
G|--------------------------------------------------------------------------------------------
D|--------------------------------------------------------------------------------------------
A|--------------------------------------------------------------------------------------------
E|--4--4--4--4--4--4--4----4--4--4--4--4--4--4----9--9--9--9--9--9--9----9--9--9--9--9--9--9--



E|--------------
B|--------------
G|--------------
D|--------------
A|--------------
E|--5--5--5--5--



E|----------------------------------------------------------------------------
B|----------------------------------------------------------------------------
G|----------------------------------------------------------------------------
D|----------------------------------------------------------------------------
A|-----6--6--6--5--------6--6--6--5----------7--7--7--8--9-----7--7--7--8--9--
E|--4--------------5--4--------------5----9-----------------9-----------------



E|--
B|--
G|--
D|--
A|--
E|--
http://www.guitartabcreator.com
Guitar Tab Creator is intended to store guitar tab created through the tool. It currently does not support in-line text editing. Any text you place in here will be lost. If you need to comment on your tab, please use the "Tab Notes" section located below.