Billy Talent - Viking Death March Tab

(/) Slide Up  (\) Slide Down  (h) Hammer On  (p) Pull Off  (b) Bend (r) Release (v) Vibrato


E|--------------
B|--------------
G|--------------
D|--5--5--5--5--
A|--------------
E|--5--3--1--5--



E|--------------
B|--------------
G|--------------
D|--5--3--1--5--
A|--5--3--1--5--
E|--5--3--1--5--



E|-----------3--------
B|-----3-----4--------
G|-----3-----5--------
D|--5--3--3--5--1--5--
A|--5--1--3--3--1--5--
E|--5-----3-----1--5--



E|-------------------------------------------------------------------------------
B|-------------------------------------------------------------------------------
G|-------------------------------------------------------------------------------
D|-------------------------------------------------------------------------------
A|-------------------------------------------------------------------------------
E|--7--8p0--0--0--0--0--0--4p0--0--0--0--0--0--7p0--0--10p0--0--8p0--0--5--7--8--



E|------------------------------------------------------------------------------
B|------------------------------------------------------------------------------
G|------------------------------------------------------------------------------
D|------------------------------------------------------------------------------
A|------------------------------------------------------------------------------
E|--5--7--8p0--0--0--0--0h4--0--0--0--0--0--0--0--7p0--10p0--7p0--8p0--5--7--8--



E|--6--10--8--6--
B|--3--6---5--3--
G|--0--7---5--0--
D|---------------
A|---------------
E|---------------



E|--------------
B|--------------
G|--------------
D|--5--5--5--5--
A|--5--5--5--5--
E|--5--5--5--5--
http://www.guitartabcreator.com
Guitar Tab Creator is intended to store guitar tab created through the tool. It currently does not support in-line text editing. Any text you place in here will be lost. If you need to comment on your tab, please use the "Tab Notes" section located below.