When the Streets Have No Name (2ª Guitarra)

(/) Slide Up  (\) Slide Down  (h) Hammer On  (p) Pull Off  (b) Bend (r) Release (v) Vibrato

E|-------------10-------------|--
B|---------10------10---------|--
G|--11h12--------------12p11--|--
D|--0---------------------0---|--
A|----------------------------|--
E|----------------------------|--



E|----------10--------------10--------------10---------------------10-------------|--
B|------10------10------10------10------10------10-------------10------10---------|--
G|--12--------------12--------------12--------------12--11h12--------------12p11--|--
D|--0---------------------------------------------------0-------------------------|--
A|--------------------------------------------------------------------------------|--
E|--------------------------------------------------------------------------------|--



E|--5--|--5--|--7--|--9---|--7--|--5--|--
B|--7--|--8--|--7--|--10--|--8--|--7--|--
G|--7--|--7--|--7--|--9---|--7--|--7--|--
D|--0--|--0--|-----|------|--0--|--0--|--
A|-----|-----|-----|--0---|-----|-----|--
E|-----|-----|--7--|------|-----|-----|--
http://www.guitartabcreator.com
Guitar Tab Creator is intended to store guitar tab created through the tool. It currently does not support in-line text editing. Any text you place in here will be lost. If you need to comment on your tab, please use the "Tab Notes" section located below.