Sweet Lonely (guitar 2)

(/) Slide Up  (\) Slide Down  (h) Hammer On  (p) Pull Off  (b) Bend (r) Release (v) Vibrato


E|--7----------------10----------------7----------------10------10--10--10--10--10--
B|--7----------------10----------------7----------------10------10--10--10--10--10--
G|--7----------------11----------------7----------------11------11--11--11--11--11--
D|--9----------------12----------------9----------------12------12--12--12--12--12--
A|--9----------------12----------------9----------------12------12--12--12--12--12--
E|--7----------------10----------------7----------------10------10--10--10--10--10--



E|--------------------------------------------------------------------------
B|--10--------9--------12--------14--------10--------9--------12--------14--
G|--11--------9--------13--------13--------11--------9--------13--------13--
D|--11--------9--------13--------14--------11--------9--------13--------14--
A|--9---------7--------11--------12--------9---------7--------11--------12--
E|--------------------------------------------------------------------------



E|-----------0-----------------5-----------------0-----------------5--
B|-----------0-----------------5-----------------0-----------------5--
G|--4--------1--------6--------6--------4--------1--------6--------6--
D|--4--------2--------6--------7--------4--------2--------6--------7--
A|--x--------2--------x--------7--------x--------2--------x--------7--
E|--2--------0--------4--------5--------2--------0--------4--------5--



E|-----------------------------------------------------------------
B|-----------------------------------------------------------------
G|-----------------------------------------------------------------
D|-----------------------------------------------------------------
A|--------5--5-----------4--4-----------7--7-------------9--9------
E|--7--7--------7--5--5--------5--9--9--------9--10--10--------10--



E|--------------------------------------------------------------
B|--------------------------------------------------------------
G|--------------------------------------------------------------
D|--------------------------------------------------------------
A|--------5--5-----------4--4-----------2--2-----------0--0-----
E|--7--7--------7--5--5--------5--4--4--------4--2--2--------2--



E|-----------------------------------------------------------------
B|-----------------------------------------------------------------
G|-----------------------------------------------------------------
D|-----------------------------------------------------------------
A|--------5--5-----------4--4-----------7--7-------------9--9------
E|--7--7--------7--5--5--------5--9--9--------9--10--10--------10--



E|--------------------------------------------------
B|--------------------------------------------------
G|--------------------------------------------------
D|-----------------------------------------------4--
A|--------5--5-----------4--4-----------2--2-----4--
E|--7--7--------7--5--5--------5--4--4--------4--2--



E|--------------------------------------------------------------------
B|--3--------2--------5--------7--------3--------2--------5--------7--
G|--4--------2--------6--------6--------4--------2--------6--------6--
D|--4--------2--------6--------7--------4--------2--------6--------7--
A|--2--------0--------4--------5--------2--------0--------4--------5--
E|--------------------------------------------------------------------
http://www.guitartabcreator.com
Guitar Tab Creator is intended to store guitar tab created through the tool. It currently does not support in-line text editing. Any text you place in here will be lost. If you need to comment on your tab, please use the "Tab Notes" section located below.