Sweet Lonely (guitar 1)

(/) Slide Up  (\) Slide Down  (h) Hammer On  (p) Pull Off  (b) Bend (r) Release (v) Vibrato


E|---------------------------------------------------------------------
B|---------------------------------------------------------------------
G|---------------------------------------------------------------------
D|---------------------------------------------------------------------
A|---5-------4-------7---------9--------5-------4-------7---------9----
E|-7---7/5-5---5\9-9---9\10-10---10/7-7---7/5-5---5\9-9---9\10-10---10-



E|---------------------------------------------------------------------------------
B|---------------------------------------------------------------------------------
G|---------------------------------------------------------------------------------
D|---------------------------------------------------------------------------------
A|-5-5-5-5-5-5-5-5-4-4-4-4-7-7-7-7-12-12-12-12-12-12-12-12-11-11-11-11-9--9--9--9--
E|-7-7-7-7-7-7-7-7-7-7-7-7-7-7-7-7-10-10-10-10-10-10-10-10-10-10-10-10-10-10-10-10-



E|---------------------------------------------------------------------------------
B|---------------------------------------------------------------------------------
G|---------------------------------------------------------------------------------
D|---------------------------------------------------------------------------------
A|-5-5-5-5-5-5-5-5-4-4-4-4-7-7-7-7-12-12-12-12-12-12-12-12-11-11-11-11-9--9--9--9--
E|-7-7-7-7-7-7-7-7-7-7-7-7-7-7-7-7-10-10-10-10-10-10-10-10-10-10-10-10-10-10-10-10-



E|-----------------------------------------------------------
B|-----------------------------------------------------------
G|-----------------------------------------------------------
D|---7-----6------9-------11------7-----6------9-------11----
A|-9---9-7---7-11---11-12----12-9---9-7---7-11---11-12----12-
E|-----------------------------------------------------------



E|-------------------------------------------------------------------
B|----10------9------12-------14-------10------9------12-------14----
G|-11----11-9---9-13----13-14----14-11----11-9---9-13----13-14----14-
D|-x--------x-----x--------x--------x--------x-----x--------x--------
A|-9--------7-----11-------12-------9--------7-----11-------12-------
E|-------------------------------------------------------------------



E|-----------------------------------------------------------------------------------------
B|-----------------------------------------------------------------------------------------
G|-----7-7-------6-6---------9-9----------11-11--------7-7-------6-6-------4-4-------2-2---
D|-9-9-----9-7-7-----7-11-11-----11-12-12-------12-9-9-----9-7-7-----7-6-6-----6-4-4-----4-
A|-----------------------------------------------------------------------------------------
E|-----------------------------------------------------------------------------------------



E|-------------------------------------------------------------------------------------
B|-------------------------------------------------------------------------------------
G|-----7-7-------6-6---------9-9----------11-11--------7-7-------6-6-------4-4---2-----
D|-9-9-----9-7-7-----7-11-11-----11-12-12-------12-9-9-----9-7-7-----7-6-6-----6-4-----
A|-------------------------------------------------------------------------------------
E|-------------------------------------------------------------------------------------



E|-
B|-
G|-
D|-
A|-
E|-
http://www.guitartabcreator.com
Guitar Tab Creator is intended to store guitar tab created through the tool. It currently does not support in-line text editing. Any text you place in here will be lost. If you need to comment on your tab, please use the "Tab Notes" section located below.