song 1

(/) Slide Up  (\) Slide Down  (h) Hammer On  (p) Pull Off  (b) Bend (r) Release (v) Vibrato


E|----------------------------------------------------------------
B|----------------------------------------------------------------
G|-------6-6-6-6-9-9-9-11-11-11-11-11---------6-6-6-6-7-7-7-7-6-6-
D|-4-4-4------------------------------4---4-4---------------------
A|-4-4-4-4-4-4-4-7-7-7-9--9--9--9--9--4---4-4-4-4-4-4-5-5-5-5-4-4-
E|-4-4-4------------------------------4---4-4---------------------



E|--------------------------------------------------------------------
B|--------------------------------------------------------------------
G|-------6-6-6-6-9-9-9-11-11-11-11-11---------6-6-6-6-7-7-7-7-6-6-6-6-
D|-4-4-4------------------------------4---4-4-------------------------
A|-4-4-4-4-4-4-4-7-7-7-9--9--9--9--9--4---4-4-4-4-4-4-5-5-5-5-4-4-4-4-
E|-4-4-4------------------------------4---4-4-------------------------



E|--------------------------------------------------------------------
B|--------------------------------------------------------------------
G|-------6-6-6-6-9-9-9-11-11-11-11-11---------6-6-6-6-7-7-7-7-6-6-6-6-
D|-4-4-4------------------------------4---4-4-------------------------
A|-4-4-4-4-4-4-4-7-7-7-9--9--9--9--9--4---4-4-4-4-4-4-5-5-5-5-4-4-4-4-
E|-4-4-4------------------------------4---4-4-------------------------



E|-------------------------------------------------------------------------------------
B|-------------------------------------------------------------------------------------
G|-------------------------------------------------------------------------------------
D|-7---7-7--7-7-7-2---2-2--2-2-2-4---4-4--x-x-x---x-x-x-0-0-0-0-4---4-4--x-x-x---x-x-x-
A|-7---7-7--7-7-7-2---2-2--2-2-2-4---4-4--x-x-x---x-x-x-0-0-0-0-4---4-4--x-x-x---x-x-x-
E|-7---7-7--7-7-7-2---2-2--2-2-2-4---4-4--x-x-x---x-x-x-0-0-0-0-4---4-4--x-x-x---x-x-x-



E|------------------------------------------------------------
B|------------------------------------------------------------
G|------------------------------------------------------------
D|-0-0-0-0-2---2-2--x-x-x---x-x-0-0-0-0-2---2-2--x-x-x--x-x-x-
A|-0-0-0-0-2---2-2--x-x-x---x-x-0-0-0-0-2---2-2--x-x-x--x-x-x-
E|-0-0-0-0-2---2-2--x-x-x---x-x-0-0-0-0-2---2-2--x-x-x--x-x-x-
http://www.guitartabcreator.com
Guitar Tab Creator is intended to store guitar tab created through the tool. It currently does not support in-line text editing. Any text you place in here will be lost. If you need to comment on your tab, please use the "Tab Notes" section located below.