pretty face

(/) Slide Up  (\) Slide Down  (h) Hammer On  (p) Pull Off  (b) Bend (r) Release (v) Vibrato


E|-------10-------12-12-10-------10-------12-12-10-----10-----12-12-10-------10-------12-12-10-
B|-12-12----12-12----------10-10----10-10----------8-8----8-8----------------------------------
G|---------------------------------------------------------------------11-11----11-11----------
D|---------------------------------------------------------------------------------------------
A|---------------------------------------------------------------------------------------------
E|---------------------------------------------------------------------------------------------



E|-------12-------14-14-12-----10-------10-10-10-
B|-12-12----12-12----------8-8----10-10----------
G|-----------------------------------------------
D|-----------------------------------------------
A|-----------------------------------------------
E|-----------------------------------------------
http://www.guitartabcreator.com
Guitar Tab Creator is intended to store guitar tab created through the tool. It currently does not support in-line text editing. Any text you place in here will be lost. If you need to comment on your tab, please use the "Tab Notes" section located below.