Lead the Way

(/) Slide Up  (\) Slide Down  (h) Hammer On  (p) Pull Off  (b) Bend (r) Release (v) Vibrato

(W|WW) Whole (H|HH) Half (Q|QQ) Quarter (E|EE) 8th (S|SS) 16th (T|TT) 32nd (X|XX) 64th


E|------------------------------------------------------------------------------
B|------------------------------------------------------------------------------
G|-----------------------------------------------------------------------11-----
D|------------------------------------------------------------11----9-12----12--
A|-11-------12-------11-------9h11-----11-------12-------9-12----12-------------
E|----9-9-9----9-9-9----9-9-9------9-9----9-9-9----9-9-9------------------------



E|--------------------------------------------------------------------------------
B|--------------------------------------------------------------------------------
G|-------------------------------------------------------11-----------------------
D|----------------------------------------------------------12-9-12-11------------
A|-11-------12-------11-------9h11-----11-------12---------------------12-9h11p9--
E|----9-9-9----9-9-9----9-9-9------9-9----9-9-9----9-9-9--------------------------



E|------------------------------------------------------------------------------
B|------------------------------------------------------------------------------
G|-----------------------------------------------------------------------11-----
D|------------------------------------------------------------11----9-12----12--
A|-11-------12-------11-------9h11-----11-------12-------9-12----12-------------
E|----9-9-9----9-9-9----9-9-9------9-9----9-9-9----9-9-9------------------------



E|----------------------------------------------------------------------------
B|----------------------------------------------------------------------------
G|----------------------------------------------------------------------------
D|----------------------------------------x-x----x----x-x------x-11-11-11-11--
A|-11-------12-------11-------9h11-----11-x-x-11-x-11-x-x-9h11-x-11-11-11-11--
E|----9-9-9----9-9-9----9-9-9------9-9-9--x-x-9--x-9--x-x-9----x-9--9--9--9---



E|-9----------5---------12---------7----
B|-9----------5---------12---------7----
G|-10---------6---------13---------8----
D|-11---------7---------14---------9----
A|-11---------7---------14---------9----
E|-9----------5---------12---------7----



E|----------------------5----
B|-11---------7---------5----
G|-11---------7---------6----
D|-11---------7---------7----
A|-9----------5---------7----
E|----------------------5----



E|------------------------------------------------------------------------------
B|------------------------------------------------------------------------------
G|-----------------------------------------------------------------------11-----
D|------------------------------------------------------------11----9-12----12--
A|-11-------12-------11-------9h11-----11-------12-------9-12----12-------------
E|----9-9-9----9-9-9----9-9-9------9-9----9-9-9----9-9-9------------------------



E|--------------------------------------------------------------------------------
B|--------------------------------------------------------------------------------
G|-------------------------------------------------------11-----------------------
D|----------------------------------------------------------12-9-12-11------------
A|-11-------12-------11-------9h11-----11-------12---------------------12-9h11p9--
E|----9-9-9----9-9-9----9-9-9------9-9----9-9-9----9-9-9--------------------------



E|---------------------------------------------------------------------------
B|---------------------------------------------------------------------------
G|--------------------------------------------------------------------11-----
D|------------------------------------------------------------11-9-12----12--
A|-11-------12-------11-------9h11-----11-------12-------9-12----------------
E|----9-9-9----9-9-9----9-9-9------9-9----9-9-9----9-9-9---------------------



E|----------------------------------------------------------------------------
B|----------------------------------------------------------------------------
G|----------------------------------------------------------------------------
D|-------------------------------------------------------------x-11-11-11-11--
A|-11-------12-------11-------9h11-----11-x-x-11-x-11-x-x-9h11-x-11-11-11-11--
E|----9-9-9----9-9-9----9-9-9------9-9-9--x-x-9--x-9--x-x-9----x-9--9--9--9---



E|-9----------5---------12---------7--
B|-9----------5---------12---------7--
G|-10---------6---------13---------8--
D|-11---------7---------14---------9--
A|-11---------7---------14---------9--
E|-9----------5---------12---------7--



E|--------------5---------------------------
B|-11-----7-----5-----11-----7--------------
G|-11-----7-----6-----11-----7--------------
D|-11-----7-----7-----11-----7-----7-----4--
A|-9------5-----7-----9------5-----7-----4--
E|--------------5------------------5-----2--



E|------------------------------------------------------------------
B|------------------------------------------------------------------
G|-------------------------------------------------------------7----
D|-----------------------------------------------------7---5-8---8--
A|-7-------8-------7-------5h7-----7-------8-------5-8---8----------
E|---5-5-5---5-5-5---5-5-5-----5-5---5-5-5---5-5-5------------------



E|--------------------------------------------------------------------
B|--------------------------------------------------------------------
G|-------------------------------------------------7------------------
D|---------------------------------------------------8-5-8-7----------
A|-7-------8-------7-------5h7-----7-------8-----------------8-5h7p5--
E|---5-5-5---5-5-5---5-5-5-----5-5---5-5-5---5-5-5--------------------



E|------------------------------------------------------------------
B|------------------------------------------------------------------
G|-------------------------------------------------------------7----
D|-----------------------------------------------------7---5-8---8--
A|-7-------8-------7-------5h7-----7-------8-------5-8---8----------
E|---5-5-5---5-5-5---5-5-5-----5-5---5-5-5---5-5-5------------------



E|----------------------------------------------------------------
B|----------------------------------------------------------------
G|----------------------------------------------------------------
D|-----------------------------------x-x---x---x-x-----x-7-7-7-7--
A|-7-------8-------7-------5h7-----7-x-x-7-x-7-x-x-5h7-x-7-7-7-7--
E|---5-5-5---5-5-5---5-5-5-----5-5-5-x-x-5-x-5-x-x-5---x-5-5-5-5--



E|-5---------1---------8----------3---
B|-5---------1---------8----------3---
G|-6---------2---------9----------4---
D|-7---------3---------10---------5---
A|-7---------3---------10---------5---
E|-5---------1---------8----------3---



E|---------------------1--
B|-7---------3---------1--
G|-7---------3---------2--
D|-7---------3---------3--
A|-5---------1---------3--
E|---------------------1--



E|-----------------------------------------------------------------------------
B|-----------------------------------------------------------------------------
G|-----------------------------------------------------------------------11----
D|------------------------------------------------------------11----9-12----12-
A|-11-------12-------11-------9h11-----11-------12-------9-12----12------------
E|----9-9-9----9-9-9----9-9-9------9-9----9-9-9----9-9-9-----------------------



E|--------------------------------------------------------------------------------
B|--------------------------------------------------------------------------------
G|-------------------------------------------------------11-----------------------
D|----------------------------------------------------------12-9-12-11------------
A|-11-------12-------11-------9h11-----11-------12---------------------12-9h11p9--
E|----9-9-9----9-9-9----9-9-9------9-9----9-9-9----9-9-9--------------------------



E|------------------------------------------------------------------------------
B|------------------------------------------------------------------------------
G|-----------------------------------------------------------------------11-----
D|------------------------------------------------------------11----9-12----12--
A|-11-------12-------11-------9h11-----11-------12-------9-12----12-------------
E|----9-9-9----9-9-9----9-9-9------9-9----9-9-9----9-9-9------------------------



E|----------------------------------------------------------------------------
B|----------------------------------------------------------------------------
G|----------------------------------------------------------------------------
D|----------------------------------------x-x----x----x-x------x-11-11-11-11--
A|-11-------12-------11-------9h11-----11-x-x-11-x-11-x-x-9h11-x-11-11-11-11--
E|----9-9-9----9-9-9----9-9-9------9-9-9--x-x-9--x-9--x-x-9----x-9--9--9--9---



E|-9----------5---------12---------7--
B|-9----------5---------12---------7--
G|-10---------6---------13---------8--
D|-11---------7---------14---------9--
A|-11---------7---------14---------9--
E|-9----------5---------12---------7--



E|----------------------5--
B|-11---------7---------5--
G|-11---------7---------6--
D|-11---------7---------7--
A|-9----------5---------7--
E|----------------------5--


t: E E E E E E E E E E E EE EE EE E E E E E E E E E E E E E E none
E|-------------------------------------------------------------
B|-------------------------------------------------------------
G|-------------------------------------------------------------
D|-------------------------------------------------------------
A|-9-9-9-9-9-9-9-9-9-9-9-11-11-12-5-5-5-5-5-5-5-5-5-5-5-8-8-7--
E|-------------------------------------------------------------


t: E E E E E E E E E E E E E E E E E E E E E E E E E E E E none
E|----------------------------------------------------------
B|----------------------------------------------------------
G|----------------------------------------------------------
D|----------------------------------------------------------
A|----------------------------------------------------------
E|-5-5-5-5-5-5-5-5-5-5-5-7-7-8-5-5-5-5-5-5-8-7-5-8-7-5-5-5--


t: nonenone E E E E E E E E none E E E E E E E E nonenone E E E E E E E E none none
E|-9----------5---------12---------7--
B|-9----------5---------12---------7--
G|-10---------6---------13---------8--
D|-11---------7---------14---------9--
A|-11---------7---------14---------9--
E|-9----------5---------12---------7--


t: nonenone E E E E E E E E none E E E E E E E E none E
E|----------------------5--
B|-11---------7---------5--
G|-11---------7---------6--
D|-11---------7---------7--
A|-9----------5---------7--
E|----------------------5--
http://www.guitartabcreator.com
Guitar Tab Creator is intended to store guitar tab created through the tool. It currently does not support in-line text editing. Any text you place in here will be lost. If you need to comment on your tab, please use the "Tab Notes" section located below.