It Won't Wait

(/) Slide Up  (\) Slide Down  (h) Hammer On  (p) Pull Off  (b) Bend (r) Release (v) Vibrato

Intro:

e|-------------------------------|
B|-------------------------------|
G|-------------------------------|
D|--0-------3-(x8)-5-(x5)--------| (x4)
A|--0-(x16)---------------4-4-4--|
E|-------------------------------|

e|-------------------|
B|-------------------|
G|-------------------|
D|--5-5-5-5----------| (x3)
A|--0-0-0-0---4---4--|
E|-------------------|

Chorus:

e|------------------------------------|
B|------------------------------------|
G|--7-------10------12----------------|
D|--7-------10------12------11-11-11--| (x4)
A|--5-(x16)--8-(x8)-10-(x5)-11-11-11--|
E|--5--------8------10-------9--9--9--|

Verse:

e|-------------------------------|
B|-------------------------------|
G|-------------------------------|
D|--0-------3-(x8)-5-(x5)--------| (x4)
A|--0-(x16)---------------4-4-4--|
E|-------------------------------|

e|-------------------|
B|-------------------|
G|-------------------|
D|--5-5-5-5----------| (x3)
A|--0-0-0-0---4---4--|
E|-------------------|

Chorus:

e|------------------------------------|
B|------------------------------------|
G|--7-------10------12----------------|
D|--7-------10------12------11-11-11--| (x3)
A|--5-(x16)--8-(x8)-10-(x5)-11-11-11--|
E|--5--------8------10-------9--9--9--|


e|-------------------|
B|-------------------|
G|--7-------10-------|
D|--7-------10-------|
A|--5-(x16)--8-(x8)--|
E|--5--------8-------|

e|-----------------------|
B|-----------------------|
G|--12-12-12-12----------|
D|--12-12-12-12---7---7--| (x4)
A|--10-10-10-10---7---7--|
E|--10-10-10-10---9---9--|

Bridge:

e|------------------|
B|------------------|
G|------------------|
D|--7------4--------| (x3)
A|--7-(x8)-4-(x16)--|
E|--5------2--------|

e|---------------------------------|
B|---------------------------------|
G|---------------------------------|
D|--7---7-7---7-7---4---4-4---4-4--| (x2)
A|--7---7-7---7-7---4---4-4---4-4--|
E|--5---5-5---5-5---2---2-2---2-2--|

e|-----------------------|
B|-----------------------|
G|-----------------------|
D|--4----4----4----4--4--|
A|--4----4----4----4--4--|
E|--2----2----2----2--2--|

Verse:

e|-------------------------------|
B|-------------------------------|
G|-------------------------------|
D|--0-------3-(x8)-5-(x5)--------| (x4)
A|--0-(x16)---------------4-4-4--|
E|-------------------------------|

e|-------------------|
B|-------------------|
G|-------------------|
D|--5-5-5-5----------| (x3)
A|--0-0-0-0---4---4--|
E|-------------------|

Chorus:

e|------------------------------------|
B|------------------------------------|
G|--7-------10------12----------------|
D|--7-------10------12------11-11-11--| (x3)
A|--5-(x16)--8-(x8)-10-(x5)-11-11-11--|
E|--5--------8------10-------9--9--9--|


e|-------------------|
B|-------------------|
G|--7-------10-------|
D|--7-------10-------|
A|--5-(x16)--8-(x8)--|
E|--5--------8-------|

e|-----------------------|
B|-----------------------|
G|--12-12-12-12----------|
D|--12-12-12-12---7---7--| (x2)
A|--10-10-10-10---7---7--|
E|--10-10-10-10---9---9--|

End on:

e|--------------------------|
B|--------------------------|
G|--12-12-12-12-------9--7--|
D|--12-12-12-12---7---9--7--|
A|--10-10-10-10---7---7--5--|
E|--10-10-10-10---9---------|
http://www.guitartabcreator.com
Guitar Tab Creator is intended to store guitar tab created through the tool. It currently does not support in-line text editing. Any text you place in here will be lost. If you need to comment on your tab, please use the "Tab Notes" section located below.