Parachute - She Is Love

E|----------------------x------------------------------------------x---------|
B|-8\3-----3/5----5\3--3x--3------------------8\3-----3/5---5\3---3x--3------|
G|----------------------x------------2p0---------------------------x---------|
D|----------------------x------------------------------------------x---------|
A|----------------------x------------------------------------------x---------|
E|-0-------0------0----3x--3------3-----------0-------0-----0-----3x--3------|


E|----------------------x--3---------------------------------------x--3------|
B|--------3------------3x--3-------5-----7--3--3--------3---------3x--3------|
G|------0-------------0-x--0---------------------------0---------0-x--0------|
D|----4-----------------x--0--------------------------4------------x--0------|
A|--3-------------0h2---x----------3-----5--2--3-----3-------0h2---x---------|
E|----------------------x------------------------------------------x---------|


E|--------------------------------------------x------------------------------|
B|-5----7--3--3----------8\3----3/5----5\3---3x--3---------------------------|
G|--------------------------------------------x----------2h4-2-0-------------|
D|--------------------------------------------x------------------------------|
A|-3----5--2--3-------------------------------x------------------------------|
E|-----------------------0------0------0-----3x--3----3----------------------|


E|-----------------------x-------------------------------------------x-------|
B|-8\3-----3/5----5\3---3x--3----------3-------8\3-----3/5----5\3---3x--3----|
G|-----------------------x------------0------------------------------x-------|
D|-----------------------x-----------4-------------------------------x-------|
A|-----------------------x----------3--------------------------------x-------|
E|-0-------0------0-----3x--3------------------0-------0------0-----3x--3----|


E|------------------------------------------------x--------------------x--3--|
B|-------------------------8\3------3/5-----5\3--3x--3--------3-------3x--3--|
G|-2p0----0---0--2p0---0--------------------------x----------0-------0-x--0--|
D|------0---0--------0----------------------------x---------4----------x--0--|
A|------------------------------------------------x--------3-----0h2---x-----|
E|-------------------------0--------0-------0----3x--3-----------------x-----|


E|---------------------------------------x--3--------------------------------|
B|--5----7--3--3-----------3------------3x--3------5----7--3--3--------------|
G|------------------------0------------0-x--0--------------------------------|
D|-----------------------4---------------x--0--------------------------------|
A|--3----5--2--3--------3----------0h2---x---------3----5--2--3--------------|
E|---------------------------------------x-----------------------------------|


E|----------------------x----------------------------------------------------|
B|-8\3-----3/5---5\3---3x--3----------3--------3-----------------------------|
G|----------------------x--------0---------0---------------------------------|
D|----------------------x----------------------------------------------------|
A|----------------------x----------------------------------------------------|
E|-0-------0-----0-----3x--3--------0----0----0----0-------------------------|


E|----------------------x----------------------------------------------------|
B|-8\3-----3/5---5\3---3x--3-------------------------------------------------|
G|----------------------x---------------2h4-2-0------------------------------|
D|----------------------x----------------------------------------------------|
A|----------------------x----------------------------------------------------|
E|-0-------0-----0-----3x--3----------3--------------------------------------|


E|----------------------x----------------------------------------------------|
B|-8\3-----3/5---5\3---3x--3------3---------3--------------------------------|
G|----------------------x--------------0---------------3---------------------|
D|----------------------x----------------------------0-----------------------|
A|----------------------x--------------------------4-------------------------|
E|-0-------0-----0-----3x--3---------3----3------3---------------------------|


E|---------------------------------------------------------------------------|
B|---------3--------3--------3----------3-------------3----------------------|
G|-------0--------0--------0----------0-------------0------------------------|
D|-----4--------4--------4----------4-------------4--------------------------|
A|---3--------5-------------------2-------------3----------------------------|
E|--------------------0------------------------------------------------------|


E|---------------------------------------------------------------------------|
B|---------3---------3---------3------3--------------------------------------|
G|-------0---------0---------0-----------------------------------------------|
D|-----4---------4---------4-------------------------------------------------|
A|---5-------------------2------------3--------------------------------------|
E|-------------0-------------------------------------------------------------|


E|----------------------x----------------------------------------------------|
B|-8\3-----3/5---5\3---3x--3-------------------------------------------------|
G|----------------------x---------------2h4-2-0------------------------------|
D|----------------------x----------------------------------------------------|
A|----------------------x----------------------------------------------------|
E|-0-------0-----0-----3x--3---------3---------------------------------------|


E|----------------------x----------------------------------------------------|
B|-8\3-----3/5---5\3---3x--3-------------------------------------------------|
G|----------------------x------------0----0---0---0--------------------------|
D|----------------------x----------------------------------------------------|
A|----------------------x----------------------------------------------------|
E|-0-------0-----0-----3x--3-------3----3---3---3----------------------------|


E|----------------------x----------------------------------------------------|
B|-8\3-----3/5---5\3---3x--3----3--------------------------------------------|
G|----------------------x-------0--------------------------------------------|
D|----------------------x----------------------------------------------------|
A|----------------------x----------------------------------------------------|
E|-0-------0-----0-----3x--3-------------------------------------------------|


E|---------------------------------------------------------------------------|
B|---------3--------3--------3----------3-------------3----------------------|
G|-------0--------0--------0----------0-------------0------------------------|
D|-----4--------4--------4----------4-------------4--------------------------|
A|---3--------5-------------------2-------------3----------------------------|
E|--------------------0------------------------------------------------------|


E|--------------------------3------------------------------------------------|
B|---------3----------3-----3------------------------------------------------|
G|-------0----------2-------0------------------------------------------------|
D|-----4----------0---------0------------------------------------------------|
A|---5----------------------2------------------------------------------------|
E|-------------2------------3------------------------------------------------|
Guitar Tab Creator is intended to store guitar tab created through the tool. It currently does not support in-line text editing. Any text you place in here will be lost. If you need to comment on your tab, please use the "Tab Notes" section located below.