Suspense

(/) Slide Up  (\) Slide Down  (h) Hammer On  (p) Pull Off  (b) Bend (r) Release (v) Vibrato

E|-----------------------------------------------------------------------------------------------
B|-----------------------------------------------------------------------------------------------
G|--------------------------------------------------------------------------0--------------------
D|--------------------------------------1--------------------------------1-----------------------
A|-----0-----0-----0-----0-----0-----0--------0-----0-----0-----0-----0-----------0-----0-----0--
E|--1-----1-----1-----1-----1-----1--------1-----1-----1-----1-----1-----------1-----1-----1-----



E|--------------------------------------------------------------------------------4-----------------
B|-----------------------------------------------------------------------------------3--4--5--4--3--
G|--------------------------------------------------------------------------------------------------
D|-----------------------------------4--------------------------4--5--------------------------------
A|--3--2--1-----------------------------------------------------------------------------------------
E|-----------1--2--1--2--1--2--1--2-----1--2--1--2--1--2--1--2--------1--2--1--2--------------------



E|--------------------
B|--------------------
G|--3--4--------------
D|--------3--4--5-----
A|--------------------
E|--------------------
http://www.guitartabcreator.com
Guitar Tab Creator is intended to store guitar tab created through the tool. It currently does not support in-line text editing. Any text you place in here will be lost. If you need to comment on your tab, please use the "Tab Notes" section located below.