The Flow.

(/) Slide Up  (\) Slide Down  (h) Hammer On  (p) Pull Off  (b) Bend (r) Release (v) Vibrato

Capo: 2nd Fret.

E|--------------------------------------------------------------------------------------------------
B|--------------------------------------------------------------------------------------------------
G|--------2-----------2-----------2-----------2-----------2-----------2-----------2-----------2-----
D|-----4-----4-----4-----4-----4-----4-----4-----4-----4-----4-----4-----4-----4-----4-----4-----4--
A|--5-----------5-----------5-----------5-----------4-----------4-----------4-----------4-----------
E|--------------------------------------------------------------------------------------------------



E|----------------------------------------------------------------------------------------------------
B|----------------------------------------------------------------------------------------------------
G|--------1-----------1-----------1-----------1-------------2--------2-----------2--------------------
D|-----2-----2-----2-----2-----2-----2-----2-----2-------4--------4-----4-----4-----4--------2--------
A|--2-----------2-----------2-----------2-----------2/5--------5-----------5--------------4-----4-----
E|-------------------------------------------------------------------------------------5-----------5--



E|--------------------------------------------------------------------------------------------------
B|--------------------------------------------------------------------------------------------------
G|-----------------------------------------------------------------0-----------0-----------0--------
D|-----2-----------1-----------1-----------1-----------1--------0-----0-----0-----0-----0-----0-----
A|--4-----4-----2-----2-----2-----2-----1-----1-----1-----1-----------------------------------------
E|-----------2-----------2-----------0-----------0-----------3-----------3-----------3--------------



E|--------------------------------------------------------------------------------------------------
B|--------------------------------------------------------------------------------------------------
G|--------0-----------0-----------0-----------0-----------0-----------0-----------0-----------0-----
D|-----0-----0-----0-----0-----0-----0-----0-----0-----0-----0-----0-----0-----0-----0-----0-----0--
A|--------------2-----------2-----------5-----------5-----------7-----------7-----------7-----------
E|--3-----------------------------------------------------------------------------------------------



E|---------------------------------------------------------------------------------
B|---------------------------------------------------------------------------------
G|--------0-----------0-----------2-----------2-----------2-----------2------------
D|-----0-----0-----0-----0-----4-----4-----4-----4-----4-----4-----4-----4---------
A|--6-----------5-----------5-----------5-----------5-----------5-----------5v--5--
E|---------------------------------------------------------------------------------
http://www.guitartabcreator.com
Guitar Tab Creator is intended to store guitar tab created through the tool. It currently does not support in-line text editing. Any text you place in here will be lost. If you need to comment on your tab, please use the "Tab Notes" section located below.