E Blues Scale

                                      E Blues Scales

#1
E|--------------------------------------0--3--0--------------------------------------
B|--------------------------------0--3-----------3--0--------------------------------
G|-----------------------0--2--3-----------------------3--2--0-----------------------
D|-----------------0--2-----------------------------------------2--0-----------------
A|--------0--1--2-----------------------------------------------------2--1--0--------
E|--0--3-----------------------------------------------------------------------3--0--


#2
E|--------------------------------------3--5--6--5--3--------------------------------------
B|--------------------------------3--5-----------------5--3--------------------------------
G|-----------------------2--3--4-----------------------------4--3--2-----------------------
D|-----------------2--5-----------------------------------------------5--2-----------------
A|-----------2--5-----------------------------------------------------------5--2-----------
E|--3--5--6-----------------------------------------------------------------------6--5--3--


#3
E|--------------------------------------5--6--7--6--5--------------------------------------
B|--------------------------------5--8-----------------8--5--------------------------------
G|--------------------------4--7-----------------------------7--4--------------------------
D|-----------------5--7--8-----------------------------------------8--7--5-----------------
A|-----------5--7-----------------------------------------------------------7--5-----------
E|--5--6--7-----------------------------------------------------------------------7--6--5--


#4
E|------------------------------------------7--10--7------------------------------------------
B|-------------------------------8--10--11------------11--10--8-------------------------------
G|-------------------------7--9----------------------------------9--7-------------------------
D|----------------7--8--9----------------------------------------------9--8--7----------------
A|---------7--10----------------------------------------------------------------10--7---------
E|--7--10------------------------------------------------------------------------------10--7--


#5
E|------------------------------------------------10--12--10-------------------------------
B|------------------------------------10--11--12--------------12--11--10-------------------
G|-----------------------------9--12--------------------------------------12--9------------
D|----------------------9--12----------------------------------------------------12--9-----
A|----------10--12--13---------------------------------------------------------------------
E|--10--12---------------------------------------------------------------------------------

E|----------------------------
B|----------------------------
G|----------------------------
D|----------------------------
A|--13--12--10----------------
E|--------------12--10--------
Guitar Tab Creator is intended to store guitar tab created through the tool. It currently does not support in-line text editing. Any text you place in here will be lost. If you need to comment on your tab, please use the "Tab Notes" section located below.