First Song (Solo)

(/) Slide Up  (\) Slide Down  (h) Hammer On  (p) Pull Off  (b) Bend (r) Release (v) Vibrato


E|-----------------------------------------------------------------------------------------
B|-----------------------------------------------------------------------------------------
G|---------------9h11p9-----11b11b9--11-----11--11--11--11p9---------------------------14
D|----------9h11----------------------------------------------11-11----------9--11--9----------
A|-----9h11------------------------------------------------------------9--11------------------
E|-----------------------------------------------------------------------------------------



E|-14p12--14p12--14p12--14p12--14p12---- -17-17-17-17-17-17-17---
B|------12-----12-----12-----12-----12--x3------------------------
G|-------------------------------------- ------------------------
D|-------------------------------------- ------------------------
A|-------------------------------------- ------------------------
E|-------------------------------------- ------------------------

^ Repeat twice http://www.guitartabcreator.com
Guitar Tab Creator is intended to store guitar tab created through the tool. It currently does not support in-line text editing. Any text you place in here will be lost. If you need to comment on your tab, please use the "Tab Notes" section located below.