First Song

(/) Slide Up  (\) Slide Down  (h) Hammer On  (p) Pull Off  (b) Bend (r) Release (v) Vibrato


Chords Used: E Bsus2 C# Asus2


Intro

Rhythm (Plays throughout)(Strumming Pattern Varies) Lead strums out same chords, 12 frets up.
E|-----0-----0-----0-----0-----
B|-----0-----0-----0-----0-----
G|-----1-----4-----6-----6-----
D|-----2-----4-----6-----7-----
A|-----2-----2-----4-----7-----
E|-----0-----------------5-----

Verse

Rhythm continues, while the Lead joins and plays the same chords.


After Verse

Distortion enters, rhythm plays power chords rather than sustained.

Lead Part

E|----------------------------------------------------------------------------------------------------
B|----------------------------------------------------------------------------------------------------
G|-----9---9--9---9-9--9--9-9-9/11--11--11--11-11-11-11-11-11-11-11\-9---9--9--99---11-11-11\9--9--9-9
D|----------------------------------------------------------------------------------------------------
A|-----7---7--7---7-7--7--7-7-7/9----9--9----9-9--9--9--9--9--9--9\--7---7--9--77----9--9-9\-7--7--7-7
E|----------------------------------------------------------------------------------------------------
http://www.guitartabcreator.com
Guitar Tab Creator is intended to store guitar tab created through the tool. It currently does not support in-line text editing. Any text you place in here will be lost. If you need to comment on your tab, please use the "Tab Notes" section located below.