Praise For Love (Hallelujah)

(/) Slide Up  (\) Slide Down  (h) Hammer On  (p) Pull Off  (b) Bend (r) Release (v) Vibrato
E|-----------------------------------------------------------------------
B|-----------------------------------------------------------------------
G|-----2-----2-----2-----4-----4-----4-----4-----2-----2-----2-----2-----
D|-----------------------------------------------------------------------
A|--5-----5-----5-----5-----2-----2-----2-----2-----5-----5-----5-----5--
E|-----------------------------------------------------------------------



E|--------------------------------------------------------------------------------------
B|--------------------------------------------------------------------------------------
G|--4-----4-----6-----6-----7-----7-----9-----9-----3-----3-----4-----4-----3-----3-----
D|--------------------------------------------------------------------------------------
A|-----5-----5-----7-----7-----5-----5-----7-----7-----4-----4-----5-----5-----4-----4--
E|--------------------------------------------------------------------------------------



E|-----------------------
B|-----------------------
G|--4-----4-----2--2--2--
D|-----------------------
A|-----5-----5--5--5--5--
E|-----------------------
http://www.guitartabcreator.com
Guitar Tab Creator is intended to store guitar tab created through the tool. It currently does not support in-line text editing. Any text you place in here will be lost. If you need to comment on your tab, please use the "Tab Notes" section located below.