Sa Rang Hat Na Bwa - YB

(/) Slide Up  (\) Slide Down  (h) Hammer On  (p) Pull Off  (b) Bend (r) Release (v) Vibrato


E|-----------------------4-----4-----------------------------------4-----------
B|-----5--4--4--5--7--5-----7-----5--4--------4--5--7--5--7--5--5-----7--5--4--
G|--6-----------------------------------6--6-----------------------------------
D|-----------------------------------------------------------------------------
A|-----------------------------------------------------------------------------
E|-----------------------------------------------------------------------------



E|-----------------------4--5--4-----4-----------------------4--4--4--------------
B|-----4--5--4--4--5--7-----------7-----5--5--5--5--7--5--7-----------7--5--4-----
G|--6--------------------------------------------------------------------------6--
D|--------------------------------------------------------------------------------
A|--------------------------------------------------------------------------------
E|--------------------------------------------------------------------------------



E|-----------------------4--5--4-----4--------------------------
B|-----4--5--4--4--5--7-----------7-----5--5--5--5--7--5--7--5--
G|--6-----------------------------------------------------------
D|--------------------------------------------------------------
A|--------------------------------------------------------------
E|--------------------------------------------------------------



E|-----4--5--7--4--9--9--7--5--4--5--7--7--4--7--7--9--9-----7--4--7--9--4--
B|--5-----------------------------------------------------5-----------------
G|--------------------------------------------------------------------------
D|--------------------------------------------------------------------------
A|--------------------------------------------------------------------------
E|--------------------------------------------------------------------------



E|--4--4--5--7-----9--9--11-----------12--12--12--11--9--7--9--9--9--7--7--9--7--9--
B|--------------5------------9--7--9------------------------------------------------
G|----------------------------------------------------------------------------------
D|----------------------------------------------------------------------------------
A|----------------------------------------------------------------------------------
E|----------------------------------------------------------------------------------



E|--10--9--7--7--5--4--5--5--4-----------------4--5--4-----4-----------------------4--4--4----------
B|------------------------------5--4--4--5--7-----------7-----5--5--5--5--7--5--7-----------7--5--4-
G|--------------------------------------------------------------------------------------------------
D|--------------------------------------------------------------------------------------------------
A|--------------------------------------------------------------------------------------------------
E|--------------------------------------------------------------------------------------------------
http://www.guitartabcreator.com
Guitar Tab Creator is intended to store guitar tab created through the tool. It currently does not support in-line text editing. Any text you place in here will be lost. If you need to comment on your tab, please use the "Tab Notes" section located below.