Exiled

(/) Slide Up  (\) Slide Down  (h) Hammer On  (p) Pull Off  (b) Bend (r) Release (v) Vibrato
E|-----------------------------------------------------------------------------------------------
B|-----------------------------------------------------------------------------------------------
G|-----------------------------------------------------------------------------------------------
D|------------------------------------------------------------------------------4--5--7/9--7-----
A|--7p6--------------10p9-----9p7-----7p6--------------10p9-----9p7----0--3--7-------------------
E|-------0--0--0--0--------0-------0-------0--0--0--0--------0-----------------------------------



E|-----------------------------------------
B|-----------------------------------------
G|-----------------------------------------
D|-----------------------------------------
A|--10--9--7-----6v-----------7--------6v--
E|------------0------0--0--0-----0--0------



E|------------------------------------------------------------------------------------------------
B|------------------------------------------------------------------------------------------------
G|------------------------------------------------------------------------------------------------
D|------------------------------------------------------------------------------------------------
A|--7p6--------------10p9-----9p7-----7p6--------------6p3-----3p2/6--------6--------10--9--7--6--
E|-------0--0--0--0--------0-------0-------0--0--0--0-------0---------8--7-----8--7---------------



E|----------------------------------------
B|----------------------------------------
G|----------------------------------------
D|----------------------------------------
A|--------6--------10--9--7--6--------6v--
E|--8--7-----8--7---------------8--7------



E|---------------------------------------------------------------------------------------
B|---------------------------------------------------------------------------------------
G|---------------------------------------------------------------------------------------
D|--10--9--10--7--9--7-------------------------------------------------------------------
A|----------------------7p6--------------10p9-----9p7-----7p6--------------10p9-----9p7--
E|---------------------------0--0--0--0--------0-------0-------0--0--0--0--------0-------



E|------------------------------------------------------------
B|------------------------------------------------------------
G|------------------------------------------------------------
D|------------------------------------------------------------
A|--6--------------------------------7/6-----6/3-----2v-------
E|-----0--7--0--3--3--3--3--3--3--3-------3-------3-----------



E|------------------------
B|------------------------
G|------------------------
D|------------------------
A|--6--------10--9--7--6--
E|-----8--7---------------



E|--------------------------------------------------------------------------------------
B|--------------------------------------------------------------------------------------
G|--------------------------------------------------------------------------------------
D|--------------------------------------------------------------------------------------
A|--------------------------------------------------------------------------------------
E|--5--5--5--5--5--5------5--5--5--5--5--5------5--5--5--5--5--5------8--8--8--8--8--8--



E|--------------------------------
B|--------------------------------
G|--------------------------------
D|--------------------------------
A|--------------------------------
E|--3--3--3--3v------5--5--5--5v--



E|--------------------------------
B|--------------------------------
G|--------------------------------
D|--------------------------------
A|--------------------------------
E|--3--3--3--3v------1--1--1--1v--



E|-------------------------------------------------------------------
B|-------------------------------------------------------------------
G|-------------------------------------------------------------------
D|-------------------------------------------------------------------
A|-----3--2---------3--2-----------3-----3p2----------3-----3p2------
E|--1--------3--1v--------3--5--5-----5-------3h5--5-----5-------3v--



E|------------------------
B|------------------------
G|------------------------
D|-----------5/7----------
A|-----2--3-------5/3-----
E|--1------------------5--
http://www.guitartabcreator.com
Guitar Tab Creator is intended to store guitar tab created through the tool. It currently does not support in-line text editing. Any text you place in here will be lost. If you need to comment on your tab, please use the "Tab Notes" section located below.