eu navegarei

[code]
(/) Slide Up (\) Slide Down (h) Hammer On (p) Pull Off (b) Bend (r) Release (v) Vibrato


E|--------------------------------------------------------|
A|-----3---------------------------------3----3-3-3-5-3-2-|
D|-2-0---0-2-2-2-2-2-2-----------5-5-3-2---3--------------|2x
G|---------------------2-2-0-0-0--------------------------|
B|--------------------------------------------------------|
e|--------------------------------------------------------|

E|----------------------------------------------|
A|----------------------------------------------|
D|----------------------------------------------|1 coro
G|-------2-------2----------------4-4-4-5-4-2---|
B|-1-1-0---0-1-0----1-1-1-3-1-0-----------------|
e|----------------------------------------------|

E|---------------|
A|---------------|
D|---------------|
G|-2-2-2-4-2-1-1-|2 coro (repete as 2 partes do coro 2x)
B|---------------|
e|---------------|

Obs: as notas que seguem o solo são Am G F E (sempre nessa ordem).

[url]http://www.guitartabcreator.com[/url]
Guitar Tab Creator is intended to store guitar tab created through the tool. It currently does not support in-line text editing. Any text you place in here will be lost. If you need to comment on your tab, please use the "Tab Notes" section located below.