For You Alone-Guitar solo

(/) Slide Up  (\) Slide Down  (h) Hammer On  (p) Pull Off  (b) Bend (r) Release (v) Vibrato

E|-----------------------------
B|--4--2--4--2--4--2--4--4--2--
G|-----------------------------
D|-----------------------------
A|-----------------------------
E|-----------------------------



E|--------------------2--------
B|--4--2--4--2--4--2-----4--2--
G|-----------------------------
D|-----------------------------
A|-----------------------------
E|-----------------------------



E|-----------------------------
B|--4--2-----------------------
G|--------3--1--3--1--3--1-----
D|--------------------------4--
A|-----------------------------
E|-----------------------------



E|--9---------9---------9---------
B|-----11--9-----11--9-----11--9--
G|--------------------------------
D|--------------------------------
A|--------------------------------
E|--------------------------------
http://www.guitartabcreator.com
Guitar Tab Creator is intended to store guitar tab created through the tool. It currently does not support in-line text editing. Any text you place in here will be lost. If you need to comment on your tab, please use the "Tab Notes" section located below.