JESUS SAID IT / RIVER SONG

(/) Slide Up  (\) Slide Down  (h) Hammer On  (p) Pull Off  (b) Bend (r) Release (v) Vibrato

INTRO - BASS - [Eb]

E|------------------------------------------------
B|------------------------------------------------
G|------------------------------------------------
D|------------------------------------------------
A|--6-----6--4----------6-----6--4----4--3--2--1--
E|-----6-------------------6----------------------


INTRO - GUITAR - [Eb]
E|-------------------------------------------------------
B|-------------------------------------------------------
G|--12------12--10--------12------12--10----10--9--8--6--
D|------13--------------------13-------------------------
A|-------------------------------------------------------
E|-------------------------------------------------------
http://www.guitartabcreator.com
Guitar Tab Creator is intended to store guitar tab created through the tool. It currently does not support in-line text editing. Any text you place in here will be lost. If you need to comment on your tab, please use the "Tab Notes" section located below.