Call On Your Name

(/) Slide Up  (\) Slide Down  (h) Hammer On  (p) Pull Off  (b) Bend (r) Release (v) Vibrato


E|-------------------------
B|-------------------------
G|-------------------7--6--
D|--11--7--9--11--7--------
A|-------------------------
E|-------------------------



E|-------------------------
B|-------------------------
G|-------------------9--7--
D|--11--7--9--11--7--------
A|-------------------------
E|-------------------------



E|-----------------------
B|-----------------------
G|-----------------6--4--
D|--9--6--7--9--6--------
A|-----------------------
E|-----------------------



E|------------------------
B|------------------------
G|------------------------
D|--7--4--6--9--9--11--7--
A|------------------------
E|------------------------
http://www.guitartabcreator.com
Guitar Tab Creator is intended to store guitar tab created through the tool. It currently does not support in-line text editing. Any text you place in here will be lost. If you need to comment on your tab, please use the "Tab Notes" section located below.