Out Ta Get Me - Guns N' Roses (Rhythm Guitar: Izzy Stradlin)

(/) Slide Up  (\) Slide Down  (h) Hammer On  (p) Pull Off  (b) Bend (r) Release (v) Vibrato


Rhythm: Izzy Stradlin
8x
E|------------------------------------------|
B|------------------------------------------|
G|--0--3--0--(0)---0-----------------5---3--|
D|--0--3--0--(0)---0-----3--5--5-----5---3--|
A|-----------------------3--5--5-----3---1--|
E|--------------------3-----------3---------|


4x
E|-----------|
B|-----------|
G|--0--3--0--|
D|--0--3--0--|
A|-----------|
E|-----------|


1x
E|----------------------|------------------------------------------------------------------------|
B|----------------------|-----7--------5--------2--------1----0--1p0-----------------------------|
G|--5----4---5---6/--7--|-----7--------5--------3--------2-----------2p0-------------------------|
D|--5----4---5---6/--7--|--0-----0--0-----0--0-----0--0---------------------------5-----------3--|
A|--3----2---3---4/--5--|---------------------------------------------------------5-----------3--|
E|----------------------|-------------------------------------------------3-3-3-3-3---3-3-3-3-3--|
4x 1x
E|-------------------------|-----------------------------------------|
B|-------------------------|-----------------------------------------|
G|-------------------------|--5--5--5--5--5--5--5--5--3--3--3--3--3--|
D|----------5-----------3--|--5--5--5--5--5--5--5--5--3--3--3--3--3--|
A|----------5-----------3--|--3--3--3--3--3--3--3--3--1--1--1--1--1--|
E|--3-3-3-3-3---3-3-3-3-3--|-----------------------------------------|


4x
E|------------------------------------------|
B|------------------------------------------|
G|--0--3--0--(0)---0-----------------5---3--|
D|--0--3--0--(0)---0-----3--5--5-----5---3--|
A|-----------------------3--5--5-----3---1--|
E|--------------------3-----------3---------|


4x
E|-----------|
B|-----------|
G|--0--3--0--|
D|--0--3--0--|
A|-----------|
E|-----------|



E|----------------------|------------------------------------------------------------------------|
B|----------------------|-----7--------5--------2--------1----0--1p0-----------------------------|
G|--5----4---5---6/--7--|-----7--------5--------3--------2-----------2p0-------------------------|
D|--5----4---5---6/--7--|--0-----0--0-----0--0-----0--0---------------------------5-----------3--|
A|--3----2---3---4/--5--|---------------------------------------------------------5-----------3--|
E|----------------------|-------------------------------------------------3-3-3-3-3---3-3-3-3-3--|
4x 1x
E|-------------------------|-----------------------------------------|
B|-------------------------|-----------------------------------------|
G|-------------------------|--5--5--5--5--5--5--5--5--3--3--3--3--3--|
D|----------5-----------3--|--5--5--5--5--5--5--5--5--3--3--3--3--3--|
A|----------5-----------3--|--3--3--3--3--3--3--3--3--1--1--1--1--1--|
E|--3-3-3-3-3---3-3-3-3-3--|-----------------------------------------|


4x
E|------------------------------------------|
B|------------------------------------------|
G|--0--3--0--(0)---0-----------------5---3--|
D|--0--3--0--(0)---0-----3--5--5-----5---3--|
A|-----------------------3--5--5-----3---1--|
E|--------------------3-----------3---------|


1x
E|----------------------|--------------------------------------------------------------------|
B|----------------------|--------------------------------------------------------------------|
G|--5----2---3---4---5--|---5----3--5--3--5----5----3--5--3----------------------------------|
D|--5----2---3---4---5--|---5----3--5--3--5----5----3--5--3--5----5----3--5--3--5----5----5--|
A|--3----0---1---2---3--|---3----3--3--3--3----3----3--3--3--5----5----3--5--3--5----5----5--|
E|----------------------|------------------------------------3----3----3--3--3--3----3----3--|
3x 1x
E|-----------|-------------------------------------------------------------------|
B|-----------|-------------------------------------------------------------------|
G|--3--4--5--|---5----3--5--3--5----5--5--5--5--5--5--7--7--7--7--7--7--7--7--7--|
D|--3--4--5--|---5----3--5--3--5----5--5--5--5--5--5--7--7--7--7--7--7--7--7--7--|
A|--1--2--3--|---3----3--3--3--3----3--3--3--3--3--3--5--5--5--5--5--5--5--5--5--|
E|-----------|-------------------------------------------------------------------|
4x
E|-----------------------------------------|--------------------------------------------1--|
B|-----------------------------------------|--------------1-----------------------------1--|
G|--------2----2--2-----2--2--2--7----5----|----2----0----0----5------3-------2----0----2--|
D|--2--5--2----2--2--5--2--2--2--7----5----|----2----0----2----5---5--3--5----2----0----3--|
A|--2--5--0----0--0--5--0--0--0--5----3----|----0----2----3----3---5--1--5----0----2-------|
E|--0--3-------------3---------------------|---------3-------------3-----3---------3-------|
6x
E|-----------|
B|-----------|
G|-----3-----|
D|--5--3--5--|
A|--5--1--5--|
E|--3-----3--|


9x 1x
E|------------------------------------------|-------|
B|------------------------------------------|-------|
G|--0--3--0--(0)---0-----------------5---3--|-------|
D|--0--3--0--(0)---0-----3--5--5-----5---3--|--5----|
A|-----------------------3--5--5-----3---1--|--5----|
E|--------------------3-----------3---------|--3----|










Guitar Tab Creator is intended to store guitar tab created through the tool. It currently does not support in-line text editing. Any text you place in here will be lost. If you need to comment on your tab, please use the "Tab Notes" section located below.