Stevie Ray Vaughn

[code]
(/) Slide Up (\) Slide Down (h) Hammer On (p) Pull Off (b) Bend (r) Release (v) Vibrato


E|-----------------------|-----|--|-----------------------
B|-----------------------|-----|--|-----------------------
G|-----------------------|-----|--|-----------------------
D|--------0--------------|--2--|--|--0-----------------2--
A|--0--2-----0--2--0-----|-----|--|--0--2--2--2--0--------
E|--------------------3--|-----|--|-----------------3-----



E|-----------------------------------------|-----------------------------
B|-----------------------------------------|-----------------------------
G|--0-----------------------2--3--2--0-----|-----------------------------
D|-----------2--2--2--5--5-----------------|-----------0--------------2--
A|-----2--4-----------------------------0--|--0--1--2-----0--2--0--------
E|-----------------------------------------|-----------------------3-----
[/code]
[url]http://www.guitartabcreator.com[/url]
Guitar Tab Creator is intended to store guitar tab created through the tool. It currently does not support in-line text editing. Any text you place in here will be lost. If you need to comment on your tab, please use the "Tab Notes" section located below.