School Song

(/) Slide Up  (\) Slide Down  (h) Hammer On  (p) Pull Off  (b) Bend (r) Release (v) Vibrato
Key of G

G Major Ionan
E|-----------------------|------------------------|--------------------------------|-----------
B|---------3-7-3---------|---------3-7-3----------|---------------12---------------|-----------
G|-------4-------4-------|-------4-------4--------|---------11-12----12-11---------|-----------
D|---4-5-----------4-5---|---4-5-----------4-5----|----9-12----------------12-9----|----9-12---
A|-5-------------------5-|-5-------------------10-|-10--------------------------10-|-10--------
E|-----------------------|------------------------|--------------------------------|-----------


G C D
E|----------------------------------------|-----------------|-----------------|--------
B|----------12----------------------------|-----------------|-----------------|--------
G|--11--12------12--11--------------------|-----------------|-----------------|--2--2--
D|----------------------12--9-------------|-----------------|--2--2-----------|--0--0--
A|----------------------------------0-----|--2--2--0--2--0--|--3--3--0--2--0--|--------
E|-----------------------------7h8-----3--|--3--3-----------|-----------------|--------


C G
E|------------------------------------|--
B|------------------------------------|--
G|------------------------------------|--
D|-------------2--2--2--2-------0-----|--
A|----0--2--0--3--3--3--3--0h2--------|--
E|---------------------------------3--|--


Fill 1
E|---------------------------|--
B|---------------------------|--
G|-------7-------0-----------|--
D|--7h9-----5h7-----5--------|--
A|---------------------5-----|--
E|------------------------3--|--


Fill 2
E|-----------|---------|-----------------|-----------|-----------------------|-
B|-----------|---------|-----------------|-----------|-----------------------|-
G|-----------|---------|-----------------|-----------|-----------7-----0-----|-
D|-----------|---------|-----------------|-----------|-------7h9---5h7-------|-
A|-----5-3-3-|-7-5-5---|-------------0---|-----5-3-3-|-7-5-5-------------5---|-
E|-3-3-------|-------5-|-8-8-8-8-7h8---3-|-3-3-------|---------------------3-|-

Riff & Rhythm
G C D (D)
E|--------3--|-----------3--|-----------2--|----------
B|--------3--|-----------3--|-----------3--|----3-----
G|-----------|--------------|-----------2--|--2h4--2--
D|-----------|-----------2--|-----0--0-----|----------
A|--------2--|--2--3--3--3--|--3-----------|----------
E|--3--3--3--|--------------|--------------|----------
http://www.guitartabcreator.com
Guitar Tab Creator is intended to store guitar tab created through the tool. It currently does not support in-line text editing. Any text you place in here will be lost. If you need to comment on your tab, please use the "Tab Notes" section located below.