Saturday Night Mixolydian

Saturday Night Mixolydian G Scale With Bass



(/) Slide Up (\) Slide Down (h) Hammer On (p) Pull Off (b) Bend (r) Release (v) Vibrato
G Mixolydian

E|-----------------------------------------1--3--|--3--0-----------------------------------------
B|-----------------------------------3--5--------|--------5--3-----------------------------------
G|--------------------------2--4--5--------------|--------------5--4--2--------------------------
D|-----------------2--3--5-----------------------|-----------------------5--3--2-----------------
A|--------2--3--5--------------------------------|--------------------------------5--3--2--------
E|--3--5-----------------------------------------|-----------------------------------------5--3--

G Mixolydian Bass

G|-----------------|----------|---------|-------------
D|-----------------|--2--3--5-|-5--3--2-|-------------
A|--------2--3--5--|----------|---------|-3--2--------
E|--3--5-----------|----------|---------|-------5--3--

Walk Up Solo
E|--------------------------------------|----------------|--------------12--13--15--
B|--------------------------------7--8--|--7--8--10--12--|--12--13--15--------------
G|--------------------------7--9--------|----------------|--------------------------
D|-----------------5--7--9--------------|----------------|--------------------------
A|--------3--5--7-----------------------|----------------|--------------------------
E|--3--5--------------------------------|----------------|--------------------------


Fill 1
E|--12h-15p-12------|--12h-15p-12--------------
B|--------------15--|--------------15----------
G|------------------|------------------14--12--
D|------------------|--------------------------
A|------------------|--------------------------
E|------------------|--------------------------


Fill 2
E|--------------12--13--15--|--------------------------
B|--12--13--15--------------|--------------------------
G|--------------------------|--14b-16(16)r-14------12--
D|--------------------------|------------------14------
A|--------------------------|--------------------------
E|--------------------------|--------------------------
http://www.guitartabcreator.com
Guitar Tab Creator is intended to store guitar tab created through the tool. It currently does not support in-line text editing. Any text you place in here will be lost. If you need to comment on your tab, please use the "Tab Notes" section located below.