Sat Night G major Ionan

G maj Ionan with bass

(/) Slide Up (\) Slide Down (h) Hammer On (p) Pull Off (b) Bend (r) Release (v) Vibrato

E|-----------------------------------------2--3--
B|-----------------------------------3--5--------
G|--------------------------2--4--5--------------
D|-----------------2--4--5-----------------------
A|--------2--3--5--------------------------------
E|--3--5-----------------------------------------



G|--------------------------|--------------------------
D|-----------------2--4--5--|--5--4--2-----------------
A|--------2--3--5-----------|-----------5--3--2--------
E|--3--5--------------------|--------------------5--3--



E|-----------------------------------|--
B|--------------3--7--3--------------|--
G|-----------4-----------4-----------|--
D|-----4--5-----------------5--4-----|--
A|--5-----------------------------5--|--
E|-----------------------------------|--



E|-------------------------|-------------------------
B|---------------------12--|--12---------------------
G|-------------11--12------|------12--11-------------
D|------9--12--------------|--------------12--9------
A|--10---------------------|---------------------10--
E|-------------------------|-------------------------
http://www.guitartabcreator.com
Guitar Tab Creator is intended to store guitar tab created through the tool. It currently does not support in-line text editing. Any text you place in here will be lost. If you need to comment on your tab, please use the "Tab Notes" section located below.