Sat Night

Saturday night acoustic with Bass



(/) Slide Up (\) Slide Down (h) Hammer On (p) Pull Off (b) Bend (r) Release (v) Vibrato


E|-----------------------------------------------------------------------------
B|-----------------------------------------------------------------------------
G|-----------------------------------------------------------------------------
D|--------------------------------0--0-----------------------------------------
A|--------0--2--0--3--3--0--3--0--------0--3--0--3--3--3--3--2--2--2--2--0-----
E|--3--3--------------------------------------------------------------------3--



E|----------------------------------------------
B|--------------------------------7--8--10--12--
G|--------------------------7--9----------------
D|-----------------5--7--9----------------------
A|--------3--5--7-------------------------------
E|--3--5----------------------------------------




G|-------------------------------------------------------|--
D|-------------------------------------------------------|--
A|--------------3--3--7--5--5----------------------------|--
E|--3--3--3--5-----------------5--5--8--8--8--8--7--7--7h|--
http://www.guitartabcreator.com
Guitar Tab Creator is intended to store guitar tab created through the tool. It currently does not support in-line text editing. Any text you place in here will be lost. If you need to comment on your tab, please use the "Tab Notes" section located below.