Money

(/) Slide Up  (\) Slide Down  (h) Hammer On  (p) Pull Off  (b) Bend (r) Release (v) Vibrato

E|-----|--------------|--------------|--------------|--------------
B|--2--|--2--2-----2--|-----------3--|-----------3--|-----------3--
G|--2--|--2--0h-2-----|--------------|--------------|--------------
D|--2--|--2--2--------|-----0h-2-----|--------------|--------------
A|-----|--------------|--3-----------|-----0h-2-----|-----0h-2-----
E|-----|--------------|--------------|--3-----------|--3-----------



G|--------------|--------------|----------------
D|--------------|--------------|----------------
A|--------------|--------------|----10----10----
E|----5----5----|----8----8----|----------------



E|-------------|----------------------|--------------
B|-------------|----------------------|--------------
G|-------------|----------------------|--------------
D|-------------|-5--------------3--5--|--------------
A|--------5--7-|----3--3--3--5--------|--------------
E|--5--5-------|----------------------|--3--3--3--3--
http://www.guitartabcreator.com
Guitar Tab Creator is intended to store guitar tab created through the tool. It currently does not support in-line text editing. Any text you place in here will be lost. If you need to comment on your tab, please use the "Tab Notes" section located below.