Lynyrd skynyrd

(/) Slide Up  (\) Slide Down  (h) Hammer On  (p) Pull Off  (b) Bend (r) Release (v) Vibrato

E|--------|--------------------|--------------------|--------------------|--3--
B|--------|--------1-----------|--------3-----------|--------1--1--------|-----
G|--------|-----------0-----0--|-----------0-----0--|--------------2-----|-----
D|--------|-----2--------2-----|-----0--------0-----|-----2-----------2--|-----
A|--0--2--|--3-----------------|--------------------|--0-----------------|-----
E|--------|--------------------|--3-----------------|--------------------|-----



E|-----------|--------------|--------------
B|-----------|--------------|--------------
G|-----------|--------------|--------------
D|-----------|--------------|--------------
A|--0--2--3--|--7--5--------|--7--5-----0--
E|-----------|--------7--3--|--------7-----



E|--9--9--10--9--7--|--9--7--7------7--9-----|------7------9--|--9--10--9--9--7--9--7--|-----0--------0--------
B|------------------|-----------10--------7--|--10-----10-----|------------------------|--------2--------2-----
G|------------------|------------------------|----------------|------------------------|-----------3--------3--
D|------------------|------------------------|----------------|------------------------|--0--------------------
A|------------------|------------------------|----------------|------------------------|-----------------------
E|------------------|------------------------|----------------|------------------------|-----------------------
http://www.guitartabcreator.com
Guitar Tab Creator is intended to store guitar tab created through the tool. It currently does not support in-line text editing. Any text you place in here will be lost. If you need to comment on your tab, please use the "Tab Notes" section located below.