Blue Scales G and A with flatted Fifth

(/) Slide Up  (\) Slide Down  (h) Hammer On  (p) Pull Off  (b) Bend (r) Release (v) Vibrato


E|--------------------------------------------3-----
B|--------------------------------------3--6--------
G|--------------------------3--4--5--6--------------
D|--------------------3--5--------------------------
A|--------2--3--4--5--------------------------------
E|--3--6--------------------------------------------



E|--------------------------------------------5--
B|--------------------------------------5--8-----
G|--------------------------5--6--7--8-----------
D|--------------------5--7-----------------------
A|--------4--5--6--7-----------------------------
E|--5--8-----------------------------------------
http://www.guitartabcreator.com
Guitar Tab Creator is intended to store guitar tab created through the tool. It currently does not support in-line text editing. Any text you place in here will be lost. If you need to comment on your tab, please use the "Tab Notes" section located below.