Challenge

(/) Slide Up  (\) Slide Down  (h) Hammer On  (p) Pull Off  (b) Bend (r) Release (v) Vibrato

E|----------------------------------------------------------
B|--3-----------------------0-----------------------0h3--3--
G|-----2-----------------2-----3-----------------3----------
D|--------0-----------0-----------2-----2-----2-------------
A|-----------1-----1-----------------1--1--1----------------
E|--------------3-----------------------0-------------------



E|--------------------------------------------
B|--2-----------------------2--2--------------
G|-----2-----------------2--------2-----------
D|--------0-----------0--------------0--------
A|-----------1-----1--------------------0-----
E|--------------0--------------------------0--



E|----------------------------------------------------------
B|--2-----------------------3--0----------------------------
G|-----0-----------------2--------0-------------------------
D|--------0-----------0--------------2-----------2----------
A|-----------3-----3--------------------3-----3-----3-------
E|--------------3--------------------------2-----------2h3--

Stave 1:

E|--3-----------------------------0--3---------------------------------------
B|-----2-----------------------3--------2-----------------------0------------
G|--------0-----------------2--------------0-----------------0---------------
D|-----------0-----------0--------------------0-----------2------------------
A|--------------3-----3--------------------------3-----3---------------------
E|-----------------3--------------------------------2--------------2h3p2--0--

http://www.guitartabcreator.com
Guitar Tab Creator is intended to store guitar tab created through the tool. It currently does not support in-line text editing. Any text you place in here will be lost. If you need to comment on your tab, please use the "Tab Notes" section located below.