By Your Side - For One More Day

(/) Slide Up  (\) Slide Down  (h) Hammer On  (p) Pull Off  (b) Bend (r) Release (v) Vibrato


E|------0----------0---------0--------0--------0--------0--------0--------0--------0--------0-----
B|--12-----12--10-----10--9-----9--5-----5--5-----5--4-----4--5-----5--7-----7--5-----5--5-----5--
G|------------------------------------------------------------------------------------------------
D|------------------------------------------------------------------------------------------------
A|------------------------------------------------------------------------------------------------
E|------------------------------------------------------------------------------------------------



E|------0----------0---------0--------0--------0--------0--------0---------0---------0--------0-----
B|--12-----12--10-----10--9-----9--5-----5--5-----5--7-----7--9-----9--10-----10--9-----9--9-----9--
G|--------------------------------------------------------------------------------------------------
D|--------------------------------------------------------------------------------------------------
A|--------------------------------------------------------------------------------------------------
E|--------------------------------------------------------------------------------------------------



E|--16--16--16--12--12--12--11--11--11--12--12--12------------------
B|--------------------------------------------------12--12--12--12--
G|------------------------------------------------------------------
D|------------------------------------------------------------------
A|------------------------------------------------------------------
E|------------------------------------------------------------------



E|--16--16--16--12--12--12--11--11--11--12--12--12--------------
B|--------------------------------------------------12--12--12--
G|--------------------------------------------------------------
D|--------------------------------------------------------------
A|--------------------------------------------------------------
E|--------------------------------------------------------------



E|--16--16--16--12--12--12--11--11--11--12--12--12--11--11--11h-12p-----
B|------------------------------------------------------------------12--
G|----------------------------------------------------------------------
D|----------------------------------------------------------------------
A|----------------------------------------------------------------------
E|----------------------------------------------------------------------
http://www.guitartabcreator.com
Guitar Tab Creator is intended to store guitar tab created through the tool. It currently does not support in-line text editing. Any text you place in here will be lost. If you need to comment on your tab, please use the "Tab Notes" section located below.