Walking On Me - Jordan Millar

(/) Slide Up  (\) Slide Down  (h) Hammer On  (p) Pull Off  (b) Bend (r) Release (v) Vibrato


E|--------------------------------------------------
B|--------------------------------------------------
G|--------------------------------------------------
D|-----6--4--6-----6--4--6-----6--4--6--7--6--4--6--
A|--------------------------------------------------
E|--0-----------0-----------0-----------------------



E|--------------------------------------------------
B|--------------------------------------------------
G|--------------------------------------------------
D|-----6--4--6-----6--4--6-----6--4--6--7--6--4--2--
A|--4-----------4-----------4-----------------------
E|--------------------------------------------------



E|--------------------------------------------------
B|--------------------------------------------------
G|--------------------------------------------------
D|-----6--4--6-----6--4--6-----6--4--6-----6-----6--
A|--------------------------------------------------
E|--5-----------5-----------5-----------5-----5-----



E|--------------------------------------------------
B|--------------------------------------------------
G|--------------------------------------------------
D|-----6--4--6-----6--4--6-----6--4--6--7--6--4--2--
A|--------------------------------------------------
E|--7-----------7-----------7-----------------------



E|--0--0--0--0--0--
B|--0--0--0--0--0--
G|--1--8--2--6--8--
D|--2--6--4--7--9--
A|--2--4--4--7--9--
E|--0-----2--5--7--
http://www.guitartabcreator.com
Guitar Tab Creator is intended to store guitar tab created through the tool. It currently does not support in-line text editing. Any text you place in here will be lost. If you need to comment on your tab, please use the "Tab Notes" section located below.