solo nummer1

(/) Slide Up  (\) Slide Down  (h) Hammer On  (p) Pull Off  (b) Bend (r) Release (v) Vibrato

E|---------------------------------------------------------------------12--14----------17-----
B|-------------------------------------------------------------10--12----------14--15---------
G|---------------------------------------------------7--9--11---------------------------------
D|-----------------7--9/11\9--6-----------------7/9-------------------------------------------
A|--7--7--7--7--9----------------7--7--7--7--9------------------------------------------------
E|--------------------------------------------------------------------------------------------



E|--17--17--17--15--14--15------------------------------------------
B|------------------------------------------------------------------
G|--------------------------18--19--19--18--------------------------
D|------------------------------------------19--18------------------
A|--------------------------------------------------21--20--19--17--
E|------------------------------------------------------------------
http://www.guitartabcreator.com
Guitar Tab Creator is intended to store guitar tab created through the tool. It currently does not support in-line text editing. Any text you place in here will be lost. If you need to comment on your tab, please use the "Tab Notes" section located below.