swag er gud u brød <3

(/) Slide Up  (\) Slide Down  (h) Hammer On  (p) Pull Off  (b) Bend (r) Release (v) Vibrato

Stave 1:

E|---------------------0------------------------------------------------------------------
B|--------1p0--3----------1----------------------2--3--2--5--2--3--2----------------------
G|-----2----------0h2--------2p0-----------1--4-----------------------3--4--3--2--3--2----
D|--3-----------------------------2/3p2p0-----------------------------------------------3b
A|----------------------------------------------------------------------------------------
E|----------------------------------------------------------------------------------------

Stave 2:

E|--------------1p0-----8/7v----2---------------2-----0-----7--------5---------
B|--------3v---------0-------------0h3-------3-----3-----------8--------6------
G|-----2----------------------------------0--------------0--------0--------7v--
D|--3--------------------------------------------------------------------------
A|-----------------------------------------------------------------------------
E|------------------------------3----------------------------------------------

Stave 3:

E|--
B|--
G|--
D|--
A|--
E|--

http://www.guitartabcreator.com
Guitar Tab Creator is intended to store guitar tab created through the tool. It currently does not support in-line text editing. Any text you place in here will be lost. If you need to comment on your tab, please use the "Tab Notes" section located below.