snøjødene angriper

(/) Slide Up  (\) Slide Down  (h) Hammer On  (p) Pull Off  (b) Bend (r) Release (v) Vibrato

Stave 1:

E|-------------9--11--9---------
B|--11-----11------------11-----
G|------9--------------------9--
D|------------------------------
A|--9---------------------------
E|------------------------------

Stave 2:

E|--7--------7--12--9-----------
B|-----7--9------------10--9\7--
G|--------------0---------------
D|------------------------------
A|--7---------------------------
E|------------------------------

Stave 3:

E|--------0-----------2-----------3-----------5-----
B|-----------0-----------0-----------0-----------0--
G|--------------------------------------------------
D|-----2-----------2-----------2-----------2--------
A|--------------------------------------------------
E|--0-----------0-----------0-----------0-----------

Stave 4:

E|--
B|--
G|--
D|--
A|--
E|--

http://www.guitartabcreator.com
Guitar Tab Creator is intended to store guitar tab created through the tool. It currently does not support in-line text editing. Any text you place in here will be lost. If you need to comment on your tab, please use the "Tab Notes" section located below.