SKLØTTER OVER ALT HJEEEEELP

(/) Slide Up  (\) Slide Down  (h) Hammer On  (p) Pull Off  (b) Bend (r) Release (v) Vibrato
E|--------------------------5--4-----5--4-----------0--0--2----------------------------------------------
B|-----7-----7-----5--------------5--------4--2--------------0-------------------------------3-----------
G|--6-----6-----5-----0--4-----------------------3--3----------------------------------------------0-----
D|--------------------------4-----4--3-----3--2--------3--------------------6--7--5-------------0--------
A|--6--6--5--5--0--4--3--3-----------------------------------1-----------------------5--8\7--2-----2-----
E|--------------------------------------------------------------5--8--7--3--5--5--0----------------------



E|-----------------------------------------------------------------------------------------------------
B|-----------------------------------------------------------------------------------------------------
G|-----------------------------------------5-----------------------------5--0--------------------------
D|--------------------------------5--4--2--------5--4--2--0-----5--4--2--------4-----5--4--2--0--------
A|--------------0--------------------------------------------------------------------------------2--3--
E|--0--5--7--0-----7--5--2--3--0--------------0--------------0--------------------0--------------------



E|-----------------------------------------------------------------------------------------------
B|-----------------------------------------------------------------------------------------------
G|--------------------4--5--0--------------------------------------------------------------------
D|-----------5--4--2-----------4-----------5--4--2--0--1--------------------------4--5--4--2-----
A|--------5-----------------------------5-----------------2--3--------------4--5-----------------
E|--1--0--------------------------1--0--------------------------2--3--1--0-----------------------



E|--------------------------------------------0--2--3--2--------0--2--3--2--------
B|--------------------------------------------------------3--0--------------3--5--
G|--------------------------------------------------------------------------------
D|--0--1--------------------------------------------------------------------------
A|--------2--3--------------------------------------------------------------------
E|--------------2--3--1--0--2--3--5--3--2--0--------------------------------------
http://www.guitartabcreator.com
Guitar Tab Creator is intended to store guitar tab created through the tool. It currently does not support in-line text editing. Any text you place in here will be lost. If you need to comment on your tab, please use the "Tab Notes" section located below.