Patrick Bateman

(/) Slide Up  (\) Slide Down  (h) Hammer On  (p) Pull Off  (b) Bend (r) Release (v) Vibrato

Stave 1:

E|----------------5--------5-------------2--------2-------------2--------2-------------0-----------------------------------------
B|-------------3--------3-----5\3-----3--------3-----3\2-----2--------2-----2p0-----0--------------------------------------------
G|--7h6h5/3p0--------0-------------4--------4-------------2--------2-------------0-----------------------------------------------
D|-------------------------------------------------------------------------------------------------------------------------------
A|-------------------------------------------------------------------------------------------------------------------------------
E|-------------------------------------------------------------------------------------------------------------------------------

Stave 2:

E|-----3p1p0--3/5--5p2v-----0-----
B|-----------------------0-----0--
G|--0-----------------------------
D|--------------------------------
A|--------------------------------
E|--------------------------------

http://www.guitartabcreator.com
Guitar Tab Creator is intended to store guitar tab created through the tool. It currently does not support in-line text editing. Any text you place in here will be lost. If you need to comment on your tab, please use the "Tab Notes" section located below.