okurobitu

(/) Slide Up  (\) Slide Down  (h) Hammer On  (p) Pull Off  (b) Bend (r) Release (v) Vibrato
E|-----------------------------------------------------------------------------------
B|--7r7v------------5/7--9v------7--5--7v-------------------------------4------------
G|-----------------------------------------------5--7--8v------7--5--3---------------
D|-------------------------------------------------------------------------3---------
A|-----------------------------------------------------------------------------------
E|-----------------------------------------------------------------------------------



E|-----------------------------------------------------------------------
B|---------------------------4------------4------------------------------
G|--------3--4--5------3--5------------------5--3-----4------------------
D|--3--5-------------------------------------------4-----0------3/5--7v--
A|-----------------------------------------------------------------------
E|-----------------------------------------------------------------------
http://www.guitartabcreator.com
Guitar Tab Creator is intended to store guitar tab created through the tool. It currently does not support in-line text editing. Any text you place in here will be lost. If you need to comment on your tab, please use the "Tab Notes" section located below.