The Oak

(/) Slide Up  (\) Slide Down  (h) Hammer On  (p) Pull Off  (b) Bend (r) Release (v) Vibrato

Stave 1:

E|--------2/3----------2/3\2p0----------------------5p0----3----5----------------------------
B|-------------------------------h3v-------------0--------------0------------------3p0--1----
G|-----4------------2-------------------------0------------0h2--4/5-------------2-------0----
D|--2------------0-------------------------0---------------------------------0----------0h2--
A|--------------------------------------3---------------------------------0------------------
E|---------------------------------------------------------------------3---------------------

Stave 2:

E|-----------------------2h4--
B|--------------------2-------
G|-----------2h3h4------------
D|--2h3h4---------------------
A|----------------------------
E|----------------------------

Stave 3:

E|-----------0----------------2/3\2p0---------------------------------------------------------------
B|--------3----------3-----------------3v------------------1p0---------------------1p0--------------
G|-----2----------2--------2----------------------------2-----------------------2-------------------
D|----------------------0----------------------------0----------2p0----------0----------------------
A|--3---------------------------------------------0-----------------------0-------------2p0---------
E|---------------------------------------------3-----------------------3---------------------3\2p0--

Stave 4:

E|----------------0-------------0-------------0-------------0--
B|-------------3-------------3-------------3-------------3-----
G|----------2-------------2-------------2-------------2--------
D|---------------------0---------------------------0-----------
A|--2/3--3---------------------------3-------------------------
E|-------------------------------------------------------------

Stave 5:

E|----------------0--------3-----------------3--------5--------
B|-------------3--------3-----3-----------3--------3-----3-----
G|----------2--------2-----------2-----2--------2-----------2--
D|----------------------------------0--------------------------
A|--2/3--3-----------------------------------------------------
E|-------------------------------------------------------------

http://www.guitartabcreator.com
Guitar Tab Creator is intended to store guitar tab created through the tool. It currently does not support in-line text editing. Any text you place in here will be lost. If you need to comment on your tab, please use the "Tab Notes" section located below.