Meth Reck

(/) Slide Up  (\) Slide Down  (h) Hammer On  (p) Pull Off  (b) Bend (r) Release (v) Vibrato

Stave 1:

E|-----------------------------------------------------
B|-----------------------------------------------------
G|-------0-7-8-------0-7-8-------0-7-8-----------------
D|-0-7-8-------0-7-8-------0-7-8-------0-7-8-7-8-7-8-7-
A|-----------------------------------------------------
E|-----------------------------------------------------

Stave 2:

E|-----------------------------------5-0-------5-0-
B|-------------------------------------------------
G|---------------7-7-7-7-------7-7-7-----7-7-7-----
D|-0-7-8-5-5-5-5-5-5-5-5-2-1-3-7-7-7-----7-7-7-----
A|-------------------------------------------------
E|-------------------------------------------------

Stave 3:

E|----------15-------------15----------7---------7---
B|-------------15-------------15---------7---------7-
G|-17-17-17-------17-17-17-------9-9-9-----9-9-9-----
D|-17-17-17-------17-17-17-------9-9-9-----9-9-9-----
A|---------------------------------------------------
E|---------------------------------------------------

Stave 4:

E|-------0---------0-2-3-5-3-2---
B|---------0-------------------3-
G|-2-2-2-----2-2-2---------------
D|-2-2-2-----2-2-2---------------
A|-------------------------------
E|-------------------------------

Stave 5:

E|-------------------
B|-------------------
G|-------------------
D|-------------------
A|-----9---------7---
E|-9-7---7-9-5-9---5-

Stave 6:

E|-16-16-0-15---
B|-16-16------0-
G|-16-16--------
D|--------------
A|--------------
E|--------------

http://www.guitartabcreator.com
Guitar Tab Creator is intended to store guitar tab created through the tool. It currently does not support in-line text editing. Any text you place in here will be lost. If you need to comment on your tab, please use the "Tab Notes" section located below.